Song name
# A B C D E F G H I J K L M N O P Q R S T U V W X Y Z

Test Icicles - Sharks tab

Test Icicles - SHARKS TAB

STANDARD TUNING
by max thornton


guitar/bass
------------------------------------------------------|
------------------------------------------------------|
------------------------------------------------------|
------------------------------------------------------|
------------------------------------------------------|
---0-0-00----4--5-5-55--1-----0-0-00----4--5-5-55--1--|


guitar

------------------------------------------------------|
------------------------------------------------------|
------------------------------------------------------|
---2-2-22---------------------------------------------|
---2-2-22----6--7-7-77--3-----2-2-22----6--7-7-77--3--|
---0-0-00----4--5-5-55--1-----0-0-00----4--5-5-55--1--|

guitar 2 (comes in over the top of above bit)

------------------------------------------------------|
------------------------------------------------------|
---9-9-9-99-10-9-----9-9-99-10-9----9-99-10---9-99-10-|
------------------------------------------------------|
------------------------------------------------------|
------------------------------------------------------|

really easy intro, and is played for mostly the whole song
Tap to rate this tab
# A B C D E F G H I J K L M N O P Q R S T U V W X Y Z