Song name
# A B C D E F G H I J K L M N O P Q R S T U V W X Y Z

Test Icicles - Whats Your Damage tab

Help us improve GuitareTab! Take a short survey!
-------------------------------------------------------------------------------
			     what's your damage - test icicles
-------------------------------------------------------------------------------
Tabbed by:white tiger
Email: sharrokor@hotmail.com

Tuning: standard

e|---------------------------------------------------------------------------|
B|---------------------------------------------------------------------------|
G|---88-----88---------------------------------------------------------------|
D|---------------------------------------------------------------------------|
A|-55----55-----5--5/6-4/5-3/4-----------------------------------------------|
E|---------------5-----------------------------------------------------------|

intro, bass does it once or twice first the guitar follows it



verse:

e|---------------------------------------------------------------------------|
B|---------------------------------------------------------------------------|
G|--5-5-77-55-7--------------------------------------------------------------|
D|--0-0-00-00--0765----------------------------------------------------------|
A|---------------------------------------------------------------------------|
E|---------------------------------------------------------------------------|



e|---------------------------------------------------------------------------|
B|-----------p---------------------------------------------------------------|
G|--7--5--9--a----7--9--10--12-----------------------------------------------|
D|-----------u---------------------------------------------------------------|
A|--5--3--7--s----5--7--8---10-----------------------------------------------|
E|-----------e---------------------------------------------------------------|

rhythm, figure out strumming yourself


e|---------------------------------------------------------------------------|
B|---------------------------------------------------------------------------|
G|-----------10-------12/14-12p10-12p10--------------------------------------|
D|--12-10h12----12p10--------------------------------------------------------|
A|---------------------------------------------------------------------------|
E|---------------------------------------------------------------------------|


pre pre chorus
e|---------------------------------------------------------------------------|
B|---------------------------------------------------------------------------|
G|---7---7-------------------------------------------------------------------|
D|---------------------------------------------------------------------------|
A|---5---5-------------------------------------------------------------------|
E|---------------------------------------------------------------------------|

pre chorus
e|---------------------------------------------------------------------------|
B|---------------------------------------------------------------------------|
G|---77777777-99999999-1010101010101010-12~---------------------------------|
D|---------------------------------------------------------------------------|
A|---------------------------------------------------------------------------|
E|---------------------------------------------------------------------------|


chorus
e|-------------------10-10-10-10-10-10-10------------------------------------|
B|------------------7--7--7--7--7--7--7--7-----------------------------------|
G|-----7---------------------------------------------------------------------|
D|---------------------------------------------------------------------------|
A|-----5---------------------------------------------------------------------|
E|---------------------------------------------------------------------------|
the 7 and 10's are quiet, the lower notes are bass with some kind of distortion.


intro again for a second
e|---------------------------------------------------------------------------|
B|---------------------------------------------------------------------------|
G|--5-5-77-55-7--------------------------------------------------------------|
D|--0-0-00-00--0765----------------------------------------------------------|
A|---------------------------------------------------------------------------|
E|---------------------------------------------------------------------------|


after chorus break
e|---------------------------------------------------------------------------|
B|---------------------------------------------------------------------------|
G|--7-7~---------------------------------------------------------------------|
D|---------------------------------------------------------------------------|
A|---------------------------------------------------------------------------|
E|---------------------------------------------------------------------------|

verse rhythm again
e|---------------------------------------------------------------------------|
B|-----------p---------------------------------------------------------------|
G|--7--5--9--a----7--9--10--12-----------------------------------------------|
D|-----------u---------------------------------------------------------------|
A|--5--3--7--s----5--7--8---10-----------------------------------------------|
E|-----------e---------------------------------------------------------------|


that riff again a few times
e|---------------------------------------------------------------------------|
B|---------------------------------------------------------------------------|
G|-----------10-------12/14-12p10-12p10--------------------------------------|
D|--12-10h12----12p10--------------------------------------------------------|
A|---------------------------------------------------------------------------|
E|---------------------------------------------------------------------------|

pre pre chorus

pre chorus

harmonic

e|---------------------------------------------------------------------------|
B|---------------------------------------------------------------------------|
G|--+12+---------------------------------------------------------------------|
D|-------+12+----------------------------------------------------------------|
A|---------------------------------------------------------------------------|
E|---------------------------------------------------------------------------|

chorus


outtro:
he does intro again only louder and faster


the end

| /  slide up
| \  slide down
| h  hammer-on
| p  pull-off
| ~  vibrato
| +  harmonic
| x  Mute note
===============================================================================
Related for Whats Your Damage tab