Guitaretab - guitar tabs
Song name
# A B C D E F G H I J K L M N O P Q R S T U V W X Y Z

Test Your Reflex - Pieces Of The Sun tab

This is an awesome song and i already have the rest of rhythm guitar parts and the solo 
but i dont have time to tab them right now so ill do it later... heres the intro(this is 
can be played through the verse).

[ Tab from: http://www.guitaretab.com/t/test-your-reflex/101168.html ]
|-------------------------------------------------------------------|
|-------------------------------------------------------------------| This X3
|------------------------------------------------------------------|
|-------------9-9---------------------------------------------------|
|---7-7-(7)-7----10-10------5-5-5-5---------------------------------|
|-----------------------------------7-7-7---------------------------|


|-------------------------------------------------------------------|
|-------------------------------------------------------------------|
|------------------------------------------------------------------|
|---7-9999-121212-77-555555-----------------------------------------|
|-------------------------------------------------------------------|
|------------------------------------------------------------------|
Related for Pieces Of The Sun tab