Song name
# A B C D E F G H I J K L M N O P Q R S T U V W X Y Z

Test Your Reflex - Magazine Cutouts tab

----------------------------------------------------------------------------
	         ...Magazine Cutouts - Test Your Reflex
----------------------------------------------------------------------------
Tabbed by:SrxShadow
Email: rocket3500@yahoo.com

Tuning: Standard

PART A (00:01 - 00:31)
e|-------2------3------555-------------2-----------------------------------|
B|-----3---3------3---------3332-----3---3----5--5-5--7-7-7-7--------------|
G|-2-4---------------------------2-4---------------------------------------|
D|-------------------------------------------------------------------------|
A|-------------------------------------------------------------------------|
E|-------------------------------------------------------------------------|

e|-------2------3-------555------------2-----------------------------------|
B|-----3---3------3----------332-----3---3----5--5-5---2-------------------|
G|-2-4---------------------------2-4---------------------------------------|
D|-------------------------------------------------------------------------|
A|-------------------------------------------------------------------------|
E|-------------------------------------------------------------------------|

e|-------2------3------555-------------2-----------------------------------|
B|-----3---3------3---------3332-----3---3----5--5-5--7-7-7-7--------------|
G|-2-4---------------------------2-4---------------------------------------|
D|-------------------------------------------------------------------------|
A|-------------------------------------------------------------------------|
E|-------------------------------------------------------------------------|

e|-------2------3-------555------------2-----------------------------------|
B|-----3---3------3----------332-----3---3-3-3-3-5-5-5-5-2-2-2-2-2-2-2-----|
G|-2-4---------------------------2-4---------------------------------------|
D|-------------------------------------------------------------------------|
A|-------------------------------------------------------------------------|
E|-------------------------------------------------------------------------|

PART B (00:31 - 00:46)

e|-------------------------------------------------------------2---2-------|
B|-----5---5-3-----3-5---5---5--3---3------5---5-3---3-5---5---------------|
G|-4-4---4-------4-----4---4------4----4-4---4-----4-----4---4---4---4-----|
D|-------------------------------------------------------------------------|
A|-------------------------------------------------------------------------|
E|-------------------------------------------------------------------------|

e|-------------------------------------------------------------2---2-------|
B|-----5---5-3-----3-5---5---5--3---3------5---5-3---3-5---5---------------|
G|-4-4---4-------4-----4---4------4----4-4---4-----4-----4---4---4---------|
D|-------------------------------------------------------------------------|
A|-------------------------------------------------------------------------|
E|-------------------------------------------------------------------------|

PART C (00:46 - 01:17)
(repeat 4 X)
e|-------------------------------------------------------------------------|
B|-------------------------------------------------------------------------|
G|-9--------------------------4-4-4-4-4-4-4-4-4-4-4-4-4-4-4-4--------------|
D|-9--------------------------4-4-4-4-4-4-4-4-4-4-4-4-4-4-4-4--------------|
A|-7--------------------------2-2-2-2-2-2-2-2-2-2-2-2-2-2-2-2--------------|
E|-------------------------------------------------------------------------|
( on #3 previous Guitar II/effect)   (#4  )
e|-------5---3-------------------*--2--------2-----------------------------|
B|---------3---3---7-3-2---------*-----5--3----3-2-------------------------|
G|-4-6-7-----------------2/4-----*------------------2/4--------------------|
D|-------------------------------*-----------------------------------------|
A|-------------------------------*-----------------------------------------|
E|-------------------------------*-----------------------------------------|

Scrape! GII(01:16)

PART B 2 (01:16 - 01:47)
e|-------------------------------------------------------------2---2-------|
B|-----5---5-3-----3-5---5---5--3---3------5---5-3---3-5---5---------------|
G|-4-4---4-------4-----4---4------4----4-4---4-----4-----4---4---4---4-----|
D|-------------------------------------------------------------------------|
A|-------------------------------------------------------------------------|
E|-------------------------------------------------------------------------|

e|-------------------------------------------------------------2---2-------|
B|-----5---5-3-----3-5---5---5--3---3------5---5-3---3-5---5---------------|
G|-4-4---4-------4-----4---4------4----4-4---4-----4-----4---4---4---4-----|
D|-------------------------------------------------------------------------|
A|-------------------------------------------------------------------------|
E|-------------------------------------------------------------------------|

e|-------------------------------------------------------------2---2-------|
B|-----5---5-3-----3-5---5---5--3---3------5---5-3---3-5---5---------------|
G|-4-4---4-------4-----4---4------4----4-4---4-----4-----4---4---4---4-----|
D|-------------------------------------------------------------------------|
A|-------------------------------------------------------------------------|
E|-------------------------------------------------------------------------|

                                                 
e|-------------------------------------------------------------------------|
B|-----5---5-3-----3-5---5---5--3---3------5---5-3-------------------------|
G|-4-4---4-------4-----4---4------4----4-4---4-----2-4---------------------|
D|-------------------------------------------------------------------------|
A|-------------------------------------------------------------------------|
E|-------------------------------------------------------------------------|

This is played as well on B 2 another 
instrument but would sound ok on Guitar II
e|---7-----5------7--------------!------------------14---------*-----------|
B|---------------------7---------!------12---14-15-------------*-----------|
G|-------------------------------!-----------------------------*-----------|
D|-------------------------------!-----------------------------*-----------|
A|-------------------------------!-----------------------------*-----------|
E|-------------------------------!-----------------------------*-----------|

My first tab I hope you enjoy it !
This song would also be great if it was longer.




Tap to rate this tab
# A B C D E F G H I J K L M N O P Q R S T U V W X Y Z