Guitaretab - guitar tabs
Song name
# A B C D E F G H I J K L M N O P Q R S T U V W X Y Z

Testament - Hatreds Rise tab

Standard Tuning.
Don't play too loud, try to play at the musics level because it sounds wierd if you go over it.
I'm sick of no Testament songs tabbed on here, well the ones i want to play so I'm 
to make one.. here it goes.
Intro Lead: Repeat x8 00:03-00:35

------------------------------|
------------------------------|
------------------------------|
-----8----8--9----9-----8-----|6/8  <-Not real sure about slide part but thats
-0-0---0-0--0--0-0--0-0-------|    the closest i could get
------------------------------|
 * *   * *  *  * *  * *
Intro Rhythm 00:07-00:36

-------------------   --------|
-------------------   --------|
-------------------   --------|
------------------- x3--------|
-2~----2---3--3-3--   -2----4-|
-2~----2---3--3-3--   -2----4-|
           *  * *
----------------------|
----------------------|
----------------------|
----------------------|
-2--/3--2--/3--3--3-3-|
-2--/3--2--/3--3--3-3-|

Lead Bridge 00:36
-------|
-------|
-------|
-8-8-9-|
-------|
-------|
[ Tab from: http://www.guitaretab.com/t/testament/101462.html ]
Chorus 00:38-00:54
------------------------|
------------------------|
------------------------|
-3-3-/6-/3--3--2-2------|
-1-1-/4-/1--1--0-0-0-00-|
------------------------|

--------------|
--------------|
--------------|
-3-3-/6-/3-3~-|
-1-1-/4-/1-1~-|
--------------|

Next play the Intro riffs 00:54-1:09
              Lead Bridge 01:10

Back to Chorus 01:12-01:28

Pre-Solo 1:28-1:40
-------------------------------------------------------------|
-------------------------------------------------------------|
-------------------------------------------------------------|
-------------------------------------------------------------|
-------------------------------------------------------------|
-1h0-1h0-1h0-1h0-1h0-1h0-1h0-1h0-1h0-1h0-1h0-1h0-1h0-1h0-1h0-|

-------------------|
-------------------|
-------------------|
-------------------|
-7--11--7--6-6-5-6-|
-5--9---5--4-4-3-4-|

or
(whichever sounds better to you.. that goes for the whole tab, you can do either the 
power chords or the rooted)
-------------------|
-------------------|
-------------------|
-------------------|
-5--9---5--4-4-3-4-|
-5--9---5--4-4-3-4-|

aorry thats all I can get I can't figure out either solos.
Related for Hatreds Rise tab