Song name
# A B C D E F G H I J K L M N O P Q R S T U V W X Y Z

Testament - The Evil Has Landed tab

INTRO

|------------------------------7--7--|
|--8---8---6/8--8---8---6/8----7--7--|
|----9------------9------------7--7--|
|------------------------------------|
|------------------------------------|
|------------------------------------|


|------------------------------|
|--8---8---6/8--8---8---6--8*--|
|----9------------9------------|      * - Harmonic
|------------------------------|
|------------------------------|
|------------------------------|


Tap to rate this tab
# A B C D E F G H I J K L M N O P Q R S T U V W X Y Z