Song name
# A B C D E F G H I J K L M N O P Q R S T U V W X Y Z

Testament - The Sermon tab

#----------------------------------PLEASE NOTE---------------------------------#
#This file is the author's own work and represents their interpretation of the #
#song. You may only use this file for private study, scholarship, or research. #
#------------------------------------------------------------------------------#

THE SERMON
As recorded by Testament
(From the 1992 Album THE RITUAL)

Transcribed by S. Fly Buss
	

Music by Eric Peterson and Alex Skolnick

Gtr I (Eb Ab Db Gb Bb Eb) - 'Untitled'
Gtr II (Eb Ab Db Gb Bb Eb) - 'Untitled'
Gtr III (Eb Ab Db Gb Bb Eb) - 'Untitled'
Gtr IV (Eb Ab Db Gb Bb Eb) - 'Untitled'

 Intro
  Q=150
  B5           A5   G5     N.C.
 4/4
  Gtrs I, II               Gtr I
       PM--|
       |-3-|
  H    Q Q Q   H    H       E E E E E E E E
|------------|-----------|------------------|
|------------|-----------|------------------|
|-4----4-4-4-|-2---------|------------------|
|-4----4-4-4-|-2----5----|-10s9-9s7-7s9---4-|
|-2----2-2-2-|-0----5----|------------------|
|------------|------3----|--8s7-7s5-5s7---2-|


                                           F#5             G5
  +E  E E  E  E E S S S S    E E E E E E E E   +E  E E E E E E S S
|-------------------------|------------------|----------------------|
|-------------------------|------------------|----------------------|
|-------------------------|------------------|----------------------|
|-(4)s7-7s10-10s9-x-x-x-x-|-10s9-9s7-7s9-x-4-|-(4)-4----------------|
|-----------------x-x-x-x-|--------------x-4-|-(4)-4-4-4-4-5-5------|
|-(2)s5-5s=8--8s7-x-x-x-x-|--8s7-7s5-5s7-x-2-|-(2)-2-2-2-2-3-3-x-x--|


  N.C.
  Gtr I
    E  E  E  E  E  E E E   +E   E  E  E  E  E E E
|------------------------|------------------------|
|------------------------|------------------------|
|------------------------|------------------------|
|-/10s=9--9s=7--7s=9-x-4-|-(4)s=7--7s10-10s=9-x-x-|
|--------------------x---|--------------------x-x-|
|--/8s=7--7s=5--5s=7-x-2-|-(2)s=5--5s=8--8s=7-x-x-|
|
| Gtr II
|   E  E  E  E  E  E E E   +E   E  E  E  E  E E E
|------------------------|------------------------|
|------------------------|------------------------|
|------------------------|------------------------|
|-/13s12-12s10-10s12-x-7-|-(7)s10-10s13-13s12-x-x-|
|--------------------x---|--------------------x-x-|
|-/11s10-10s=8--8s10-x-5-|-(5)s=8--8s11-11s10-x-x-|


                      E5          F5E5F5E5
                                  PM------|
   E  E  E  E  E  E E E   +E  E E E E E E E
|-----------------------|--------------------|
|-----------------------|--------------------|
|-----------------------|--------------------|
|-10s=9--9s=7--7s=9---2-|-(2)-2--------------|
|---------------------2-|-(2)-2---3-2-3-2-2--|
|--8s=7--7s=5--5s=7---0-|-(0)-0-0-1-0-1-0-0--|
|
|                                 PM------|
|  E  E  E  E  E  E E E   +E  E E E E E E E
|-----------------------|--------------------|
|-----------------------|--------------------|
|---------------------9-|-(9)-9--------------|
|-13s12-12s10-10s12---9-|-(9)-9--------------|
|---------------------7-|-(7)-7---3-2-3-2-2--|
|-11s10-10s=8--8s10---0-|-(0)-0-0-1-0-1-0-0--|


  C5  B5  A5  B5  F#5     A5  C5    B5
    E E E E E E E E   +E  E E  E  E E E E
|-------------------|---------------------|
|-------------------|---------------------|
|-------------------|---------------------|
|-/10s9-9s7-7s9-x-4-|-(4)s7-7s10-10s9-x-x-|
|---------------x---|-----------------x-x-|
|--/8s7-7s5-5s7-x-2-|-(2)s5-5s=8--8s7-x-x-|
|
|   E E E E E E E E   +E  E E  E  E E E E
|-------------------|---------------------|
|-------------------|---------------------|
|-------------------|---------------------|
|-/10s9-9s7-7s9-x-4-|-(4)s7-7s10-10s9-x-x-|
|--10s9-9s7-7s9-x-4-|-(4)s7-7s10-10s9-x-x-|
|--/8s7-7s5-5s7-x-2-|-(2)s5-5s=8--8s7-x-x-|


  C5 B5  A5  B5  F#5             C#C5
   E E E E E E E E   +E  E E E E E E +E
|------------------|-----------------------|
|------------------|-----------------------|
|------------------|-----------------------|
|-10s9-9s7-7s9---4-|-(4)-4-------6-5-(5)/--|
|----------------4-|-(4)-4-------4-3-(3)/--|
|--8s7-7s5-5s7---2-|-(2)-2-2-2-2-----------|
|
|  E E E E E E E E   +E  E E E E E E +E
|------------------|-----------------------|
|------------------|-----------------------|
|------------------|-----------------------|
|-10s9-9s7-7s9---4-|-(4)-4-------6-5-(5)/--|
|-10s9-9s7-7s9---4-|-(4)-4-------4-3-(3)/--|
|--8s7-7s5-5s7---2-|-(2)-2-2-2-2-----------|


  N.C.                                                                    F#5
    E  E  E  E  E  E E E   +E   E  E  E  E  E S S E    E  E  E  E  E  E E E
|------------------------|--------------------------|-----------------------||
|------------------------|--------------------------|-----------------------||
|------------------------|--------------------------|-----------------------||
|-/10s=9--9s=7--7s=9-x-4-|-(4)s=7--7s10-10s=9-x-x-x-|-10s=9--9s=7--7s=9-x-4-||
|--------------------x---|--------------------x-x-x-|-------------------x-4-||
|--/8s=7--7s=5--5s=7-x-2-|-(2)s=5--5s=8--8s=7-x-x-x-|--8s=7--7s=5--5s=7-x-2-||
|
|   E  E  E  E  E  E E E   +E   E  E  E  E  E S S E    E  E  E  E  E  E E E
|------------------------|--------------------------|-----------------------||
|------------------------|--------------------------|-----------------------||
|------------------------|--------------------------|-----------------------||
|-/13s12-12s10-10s12-x-7-|-(7)s10-10s13-13s12-x-x-x-|-13s12-12s10-10s12-x-4-||
|--------------------x---|--------------------x-x-x-|-------------------x-4-||
|-/11s10-10s=8--8s10-x-5-|-(5)s=8--8s11-11s10-x-x-x-|-11s10-10s=8--8s10-x-2-||


 Verse I
                                         C5      B5  A5  B5  F#5
  +Q   S S E E E E E   E E E E S S S S E  E    E E E E E E E E
|--------------------|----------------------|-------------------|
|--------------------|----------------------|-------------------|
|--------------------|----------------------|-------------------|
|-(4)--4-4---4-----4-|---4-----4-4-4-4-4s10-|-10s9-9s7-7s9-x-4--|
|-(4)--4-4---4-----4-|---4-----4-4-4-4------|--------------x-4--|
|-(2)--2-2-2-2-2-2-2-|-2-2-2-2-2-2-2-2-2s=8-|--8s7-7s5-5s7-x-2--|
|
| +Q   S S E E E E E   E E E E E   E   E  E    E E E E E E E E
|--------------------|----------------------|-------------------|
|--------------------|----------------------|-------------------|
|--------------------|----------------------|-------------------|
|-(4)--4-4---4-----4-|---4-----4---4---4s10-|-10s9-9s7-7s9-x-4--|
|-(4)--4-4---4-----4-|---4-----4---4---4s10-|-10s9-9s7-7s9-x-4--|
|-(2)--2-2-2-2-2-2-2-|-2-2-2-2-2---2---2s=8-|--8s7-7s5-5s7-x-2--|


  F#5                                C5   N.C.                F#
  +Q   S S E E E E E   E E E E E E E  E    E  E  E  E  E  E E E
|--------------------|------------------|-----------------------|
|--------------------|------------------|-----------------------|
|--------------------|------------------|---------------------3-|
|-(4)--4-4---4-----4-|---4-----4-4-4s10-|-10s=9--9s=7--7s=9-x-4-|
|-(4)--4-4---4-----4-|---4-----4-4------|-------------------x-4-|
|-(2)--2-2-2-2-2-2-2-|-2-2-2-2-2-2-2s=8-|--8s=7--7s=5--5s=7-x-2-|
|
| +Q   S S E E E E E   E E E E E E E  E    E  E  E  E  E  E E E
|--------------------|------------------|-----------------------|
|--------------------|------------------|-----------------------|
|--------------------|------------------|-----------------------|
|-(4)--4-4---4-----4-|---4-----4-4-4s10-|-13s12-12s10-10s12-x-4-|
|-(4)--4-4---4-----4-|---4-----4-4-4s10-|-------------------x-4-|
|-(2)--2-2-2-2-2-2-2-|-2-2-2-2-2-2-2s=8-|-11s10-10s=8--8s10-x-2-|


  F#                                 C5   N.C.
  +Q   S S E E E E E   E E E E E E E  E     E  E  E  E  E  E E E
|--------------------|------------------|------------------------|
|--------------------|------------------|------------------------|
|-(3)----------------|------------------|------------------------|
|-(4)--4-4---4-----4-|---4-----4-4-4s10-|-/10s=9--9s=7--7s=9-x-4-|
|-(4)--4-4---4-----4-|---4-----4-4------|--------------------x---|
|-(2)--2-2-2-2-2-2-2-|-2-2-2-2-2-2-2s=8-|--/8s=7--7s=5--5s=7-x-2-|
|
| +Q   S S E E E E E   E E E E E E E  E     E  E  E  E  E  E E E
|--------------------|------------------|------------------------|
|--------------------|------------------|------------------------|
|--------------------|------------------|------------------------|
|-(4)--4-4---4-----4-|---4-----4-4-4s10-|-/13s12-12s10-10s12-x-7-|
|-(4)--4-4---4-----4-|---4-----4-4-4s10-|--------------------x---|
|-(2)--2-2-2-2-2-2-2-|-2-2-2-2-2-2-2s=8-|-/11s10-10s=8--8s10-x-5-|


  N.C.                 F#
  +E   E  E  E  E  E E S S   +Q   Q  E E E E   +H.      +E   E
|--------------------------|-----------------|-----------------|
|--------------------------|-----------------|-----------------|
|----------------------3-3-|-(3)--3------3-3-|-(3)------(3)/---|
|-(4)s=7--7s10-10s=9-x-4-4-|-(4)--4--x---4-4-|-(4)------(4)/---|
|--------------------x-4-4-|-(4)--4--x---4-4-|-(4)------(4)/---|
|-(2)s=5--5s=8--8s=7-x-2-2-|-(2)--2--x---2-2-|-(2)------(2)/---|
|
| +E   E  E  E  E  E E S S   +Q   Q  E E E E   +H.      +E   E
|--------------------------|-----------------|-----------------|
|--------------------------|-----------------|-----------------|
|--------------------------|-----------------|-----------------|
|-(7)s10-10s13-13s12-x-4-4-|-(4)--4--x---4-4-|-(4)------(4)/---|
|--------------------x-4-4-|-(4)--4--x---4-4-|-(4)------(4)/---|
|-(5)s=8--8s11-11s10-x-2-2-|-(2)--2--x---2-2-|-(2)------(2)/---|


  C5  B5  A5  B5    F#5     A5  C5    B5      C5 B5  A5  B5  F#5
    E E E E E E S S E   +E  E E  E  E E E E    E E E E E E E E
|---------------------|---------------------|------------------|
|---------------------|---------------------|------------------|
|---------------------|---------------------|------------------|
|-/10s9-9s7-7s9-x-x-4-|-(4)s7-7s10-10s9-x-x-|-10s9-9s7-7s9-x-4-|
|---------------x-x---|-----------------x-x-|--------------x-4-|
|--/8s7-7s5-5s7-x-x-2-|-(2)s5-5s=8--8s7-x-x-|--8s7-7s5-5s7-x-2-|
|
|   E E E E E E S S E   +E  E E  E  E E E E    E E E E E E E E
|---------------------|---------------------|------------------|
|---------------------|---------------------|------------------|
|---------------------|---------------------|------------------|
|-/10s9-9s7-7s9-x-x-4-|-(4)s7-7s10-10s9-x-x-|-10s9-9s7-7s9-x-4-|
|-/10s9-9s7-7s9-x-x-4-|-(4)s7-7s10-10s9-x-x-|-10s9-9s7-7s9-x-4-|
|--/8s7-7s5-5s7-x-x-2-|-(2)s5-5s=8--8s7-x-x-|--8s7-7s5-5s7-x-2-|


  F#5         C#C5       N.C.
  +E  E E E E E E +E       E  E  E  E  E  E E E
|----------------------|------------------------|
|----------------------|------------------------|
|----------------------|------------------------|
|-(4)-4-------6-5-(5)/-|-/10s=9--9s=7--7s=9-x-4-|
|-(4)-4-------4-3-(3)/-|--------------------x---|
|-(2)-2-2-2-2----------|--/8s=7--7s=5--5s=7-x-2-|
|
| +E  E E E E E E +E       E  E  E  E  E  E E E
|----------------------|------------------------|
|----------------------|------------------------|
|----------------------|------------------------|
|-(4)-4-------6-5-(5)/-|-/13s12-12s10-10s12-x-7-|
|-(4)-4-------4-3-(3)/-|--------------------x---|
|-(2)-2-2-2-2----------|-/11s10-10s=8--8s10-x-5-|


                                             E5F#5
  +E   E  E  E  E  E E E    E  E  E  E  E  E E E
|------------------------|------------------------||
|------------------------|------------------------||
|------------------------|------------------------||
|-(4)s=7--7s10-10s=9-x-x-|-10s=9--9s=7--7s=9-2-4--||
|--------------------x-x-|-------------------2-4--||
|-(2)s=5--5s=8--8s=7-x-x-|--8s=7--7s=5--5s=7-0-2--||
|
| +E   E  E  E  E  E E E    E  E  E  E  E  E E E
|------------------------|------------------------||
|------------------------|------------------------||
|------------------------|------------------------||
|-(7)s10-10s13-13s12-x-x-|-13s12-12s10-10s12-x-4--||
|--------------------x-x-|-------------------x-4--||
|-(5)s=8--8s11-11s10-x-x-|-11s10-10s=8--8s10-x-2--||


 Verse II,II & IV
  $
  $$
  F#5                                    C5      B5  A5  B5  F#5
  +Q   S S E E E E E   E E E E S S S S E  E    E E E E E E E E
|--------------------|----------------------|-------------------|
|--------------------|----------------------|-------------------|
|--------------------|----------------------|-------------------|
|-(4)--4-4---4-----4-|---4-----4-4-4-4-4s10-|-10s9-9s7-7s9-x-4--|
|-(4)--4-4---4-----4-|---4-----4-4-4-4------|--------------x-4--|
|-(2)--2-2-2-2-2-2-2-|-2-2-2-2-2-2-2-2-2s=8-|--8s7-7s5-5s7-x-2--|
|
| +Q   S S E E E E E   E E E E E   E   E  E    E E E E E E E E
|--------------------|----------------------|-------------------|
|--------------------|----------------------|-------------------|
|--------------------|----------------------|-------------------|
|-(4)--4-4---4-----4-|---4-----4---4---4s10-|-10s9-9s7-7s9-x-4--|
|-(4)--4-4---4-----4-|---4-----4---4---4s10-|-10s9-9s7-7s9-x-4--|
|-(2)--2-2-2-2-2-2-2-|-2-2-2-2-2---2---2s=8-|--8s7-7s5-5s7-x-2--|


  F#5                                C5   N.C.                F#
  +Q   S S E E E E E   E E E E E E E  E    E  E  E  E  E  E E E
|--------------------|------------------|-----------------------|
|--------------------|------------------|-----------------------|
|--------------------|------------------|---------------------3-|
|-(4)--4-4---4-----4-|---4-----4-4-4s10-|-10s=9--9s=7--7s=9-x-4-|
|-(4)--4-4---4-----4-|---4-----4-4------|-------------------x-4-|
|-(2)--2-2-2-2-2-2-2-|-2-2-2-2-2-2-2s=8-|--8s=7--7s=5--5s=7-x-2-|
|
| +Q   S S E E E E E   E E E E E E E  E    E  E  E  E  E  E E E
|--------------------|------------------|-----------------------|
|--------------------|------------------|-----------------------|
|--------------------|------------------|-----------------------|
|-(4)--4-4---4-----4-|---4-----4-4-4s10-|-13s12-12s10-10s12-x-4-|
|-(4)--4-4---4-----4-|---4-----4-4-4s10-|-------------------x-4-|
|-(2)--2-2-2-2-2-2-2-|-2-2-2-2-2-2-2s=8-|-11s10-10s=8--8s10-x-2-|


       F#5                           C5   N.C.
  +Q   S S E E E E E   E E E E E E E  E     E  E  E  E  E  E E E
|--------------------|------------------|------------------------|
|--------------------|------------------|------------------------|
|-(3)----------------|------------------|------------------------|
|-(4)--4-4---4-----4-|---4-----4-4-4s10-|-/10s=9--9s=7--7s=9-x-4-|
|-(4)--4-4---4-----4-|---4-----4-4------|--------------------x---|
|-(2)--2-2-2-2-2-2-2-|-2-2-2-2-2-2-2s=8-|--/8s=7--7s=5--5s=7-x-2-|
|
| +Q   S S E E E E E   E E E E E E E  E     E  E  E  E  E  E E E
|--------------------|------------------|------------------------|
|--------------------|------------------|------------------------|
|--------------------|------------------|------------------------|
|-(4)--4-4---4-----4-|---4-----4-4-4s10-|-/13s12-12s10-10s12-x-7-|
|-(4)--4-4---4-----4-|---4-----4-4-4s10-|--------------------x---|
|-(2)--2-2-2-2-2-2-2-|-2-2-2-2-2-2-2s=8-|-/11s10-10s=8--8s10-x-5-|


  N.C.                 F#
  +E   E  E  E  E  E E S S   +Q   Q  E E E E   +H.      +E   E
|--------------------------|-----------------|-----------------|
|--------------------------|-----------------|-----------------|
|----------------------3-3-|-(3)--3------3-3-|-(3)------(3)/---|
|-(4)s=7--7s10-10s=9-x-4-4-|-(4)--4--x---4-4-|-(4)------(4)/---|
|--------------------x-4-4-|-(4)--4--x---4-4-|-(4)------(4)/---|
|-(2)s=5--5s=8--8s=7-x-2-2-|-(2)--2--x---2-2-|-(2)------(2)/---|
|
| +E   E  E  E  E  E E S S   +Q   Q  E E E E   +H.      +E   E
|--------------------------|-----------------|-----------------|
|--------------------------|-----------------|-----------------|
|--------------------------|-----------------|-----------------|
|-(7)s10-10s13-13s12-x-4-4-|-(4)--4--x---4-4-|-(4)------(4)/---|
|--------------------x-4-4-|-(4)--4--x---4-4-|-(4)------(4)/---|
|-(5)s=8--8s11-11s10-x-2-2-|-(2)--2--x---2-2-|-(2)------(2)/---|


  C5  B5  A5  B5    F#5     A5  C5    B5      C5 B5  A5  B5  F#5
    E E E E E E S S E   +E  E E  E  E E E E    E E E E E E E E
|---------------------|---------------------|------------------|
|---------------------|---------------------|------------------|
|---------------------|---------------------|------------------|
|-/10s9-9s7-7s9-x-x-4-|-(4)s7-7s10-10s9-x-x-|-10s9-9s7-7s9-x-4-|
|---------------x-x---|-----------------x-x-|--------------x-4-|
|--/8s7-7s5-5s7-x-x-2-|-(2)s5-5s=8--8s7-x-x-|--8s7-7s5-5s7-x-2-|
|
|   E E E E E E S S E   +E  E E  E  E E E E    E E E E E E E E
|---------------------|---------------------|------------------|
|---------------------|---------------------|------------------|
|---------------------|---------------------|------------------|
|-/10s9-9s7-7s9-x-x-4-|-(4)s7-7s10-10s9-x-x-|-10s9-9s7-7s9-x-4-|
|-/10s9-9s7-7s9-x-x-4-|-(4)s7-7s10-10s9-x-x-|-10s9-9s7-7s9-x-4-|
|--/8s7-7s5-5s7-x-x-2-|-(2)s5-5s=8--8s7-x-x-|--8s7-7s5-5s7-x-2-|


  F#5       C#C5       N.C.
  E E E E E E E +E       E  E  E  E  E  E E E   +E   E  E  E  E  E E E
|--------------------|------------------------|------------------------|
|--------------------|------------------------|------------------------|
|--------------------|------------------------|------------------------|
|-4-4-------6-5-(5)/-|-/10s=9--9s=7--7s=9-x-4-|-(4)s=7--7s10-10s=9-x-x-|
|-4-4-------4-3-(3)/-|--------------------x---|--------------------x-x-|
|-2-2-2-2-2----------|--/8s=7--7s=5--5s=7-x-2-|-(2)s=5--5s=8--8s=7-x-x-|
|
| E E E E E E E +E       E  E  E  E  E  E E E   +E   E  E  E  E  E E E
|--------------------|------------------------|------------------------|
|--------------------|------------------------|------------------------|
|--------------------|------------------------|------------------------|
|-4-4-------6-5-(5)/-|-/13s12-12s10-10s12-x-7-|-(7)s10-10s13-13s12-x-x-|
|-4-4-------4-3-(3)/-|--------------------x---|--------------------x-x-|
|-2-2-2-2-2----------|-/11s10-10s=8--8s10-x-5-|-(5)s=8--8s11-11s10-x-x-|


  N.C.                F#
                           |3-| |-3-|
   E  E  E  E  E  E E E   +Q  E E E E E E Q
|-----------------------|--------------------||
|-----------------------|--------------------||
|---------------------3-|-(3)-3-3-3-3-3------||
|-10s=9--9s=7--7s=9-x-4-|-(4)-4-4-4-4-4------||
|-------------------x-4-|-(4)-4-4-4-4-4------||
|--8s=7--7s=5--5s=7-x-2-|-(2)-2-2-2-2-2------||
|
|                          |3-| |-3-|
|  E  E  E  E  E  E E E   +Q  E E E E E E Q
|-----------------------|--------------------||
|-----------------------|--------------------||
|-----------------------|-----3-3-3-3-3------||
|-13s12-12s10-10s12-x-4-|-(4)-4-4-4-4-4------||
|-------------------x-4-|-(4)-4-4-4-4-4------||
|-11s10-10s=8--8s10-x-2-|-(2)-2-2-2-2-2------||


 Chorus
  B5         A5   G5     F#5           G5F#5 G5 F#5     G5
  Gtrs I, II
  W          H    H      S S E E E E E E E    E E E E S S E E S S
|----------|-----------|-------------------|----------------------|
|----------|-----------|-------------------|----------------------|
|-4--------|-2---------|-------------------|----------------------|
|-4--------|-2----5----|-------------------|----------------------|
|-2--------|-0----5----|-4-4-4-4-4-4-4-5s4-|-/5s4-4-4-4-5-5-5-x-x-|
|----------|------3----|-2-2-2-2-2-2-2-3s2-|-/3s2-2-2-2-3-3-3-x-x-|


                                                           To Coda
  B5           A5   G5     F#5           G5F#5 G5 F#5     G5
  Q  Q  H      H    H      S S E E E E E E E    E E E E S S E E S S
|------------|-----------|-------------------|----------------------|
|------------|-----------|-------------------|----------------------|
|-4--4--4----|-2---------|-------------------|----------------------|
|-4--4--4----|-2----5----|-------------------|----------------------|
|-2--2--2----|-0----5----|-4-4-4-4-4-4-4-5s4-|-/5s4-4-4-4-5-5-5-x-x-|
|------------|------3----|-2-2-2-2-2-2-2-3s2-|-/3s2-2-2-2-3-3-3-x-x-|


  B5            A5   G5     C5  B5  A5  B5  F#5
  Gtr I
  Q  Q  Q  Q    H    H        E E E E E E E E
|-------2-----|-----------|-------------------|
|----2-----2--|-----------|-------------------|
|-4-----------|-2---------|-------------------|
|-4-----------|-2----5----|-/10s9-9s7-7s9-x-4-|
|-2-----------|-0----5----|---------------x---|
|-------------|------3----|--/8s7-7s5-5s7-x-2-|
|
| Gtr II
| W             W             E E E E E E E E
|-------------|-----------|-------------------|
|-------------|-----------|-------------------|
|-------------|-----------|-------------------|
|-------------|-----------|--10s9-9s7-7s9-x-4-|
|-------------|-----------|--10s9-9s7-7s9-x-4-|
|-------------|-----------|---8s7-7s5-5s7-x-2-|


      A5  C5    B5      C5 B5  A5  B5  F#5
  +E  E E  E  E E E E    E E E E E E E E
|---------------------|--------------------|
|---------------------|--------------------|
|---------------------|--------------------|
|-(4)s7-7s10-10s9-x-x-|-10s9-9s7-7s9-x-4---|
|-----------------x-x-|--------------x-4---|
|-(2)s5-5s=8--8s7-x-x-|--8s7-7s5-5s7-x-2---|
|
| +E  E E  E  E E E E    E E E E E E E E
|---------------------|--------------------|
|---------------------|--------------------|
|---------------------|--------------------|
|-(4)s7-7s10-10s9-x-x-|-10s9-9s7-7s9-x-4---|
|-(4)s7-7s10-10s9-x-x-|-10s9-9s7-7s9-x-4---|
|-(2)s5-5s=8--8s7-x-x-|--8s7-7s5-5s7-x-2---|


  F#5         C#C5       N.C.
  +E  E E E E E E +E       E  E  E  E  E  E E E
|----------------------|------------------------|
|----------------------|------------------------|
|----------------------|------------------------|
|-(4)-4-------6-5-(5)/-|-/10s=9--9s=7--7s=9-x-4-|
|-(4)-4-------4-3-(3)/-|--------------------x---|
|-(2)-2-2-2-2----------|--/8s=7--7s=5--5s=7-x-2-|
|
| +E  E E E E E E +E       E  E  E  E  E  E E E
|----------------------|------------------------|
|----------------------|------------------------|
|----------------------|------------------------|
|-(4)-4-------6-5-(5)/-|-/13s12-12s10-10s12-x-7-|
|-(4)-4-------4-3-(3)/-|--------------------x---|
|-(2)-2-2-2-2----------|-/11s10-10s=8--8s10-x-5-|


                                   D.S. al Coda
                                   D.S. al Coda
                                               F#5
  +E   E  E  E  E  E E E    E  E  E  E  E  E E E
|------------------------|------------------------||
|------------------------|------------------------||
|------------------------|------------------------||
|-(4)s=7--7s10-10s=9-x-x-|-10s=9--9s=7--7s=9-x-4--||
|--------------------x-x-|-------------------x-4--||
|-(2)s=5--5s=8--8s=7-x-x-|--8s=7--7s=5--5s=7-x-2--||
|
| +E   E  E  E  E  E E E    E  E  E  E  E  E E E
|------------------------|------------------------||
|------------------------|------------------------||
|------------------------|------------------------||
|-(7)s10-10s13-13s12-x-x-|-13s12-12s10-10s12-x-4--||
|--------------------x-x-|-------------------x-4--||
|-(5)s=8--8s11-11s10-x-x-|-11s10-10s=8--8s10-x-2--||


  &
  B5                A5   G5     G  F#   E5F#G
  Gtrs I, II
  H.      +E  S S   H    H      Q  Q  E E E E
|-----------------|-----------|---------------|
|-----------------|-----------|---------------|
|-4-------(4)-x-x-|-2---------|-4--3------3-4-|
|-4-------(4)-x-x-|-2----5----|-5--4--x-2-4-5-|
|-2-------(2)-x-x-|-0----5----|-5--4--x-2-4-5-|
|-----------------|------3----|-3--2--x-0-2-3-|


       F#             N.C.    A5G5  G5       F#5  E5F#G5
  +Q   Q  E E S S E   E E E E E E E E   +Q   Q  E E E E
|-------------------|-----------------|-----------------|
|-------------------|-----------------|-----------------|
|-(4)--3------------|-----------------|-----------------|
|-(5)--4--x-x-x-x-x-|-----------------|-----------------|
|-(5)--4--x-x-x-x-x-|---------7s5---5-|-(5)--4--x-2-4-5-|
|-(3)--2--x-x-x-x-x-|-0-6-4-0-5s3-0-3-|-(3)--2--x-0-2-3-|


          F#5           F#sus4/B    Esus4G5
  +E  S S E E E E E E   H    H      H    H
|---------------------|-2----2----|-0---------||
|---------------------|-2----2----|-0----3----||
|---------------------|-4----4----|-2----0----||
|---------------------|-4----4----|-2----0----||
|-(5)-5-5-4-x-x-x-x---|-2----2----|-0---------||
|-(3)-3-3-2-x-x-x-x-0-|-----------|------3----||


  C5  B5  A5  B5  F#5     A5  C5    B5
  Gtr I
    E E E E E E E E   +E  E E  E  E E E E
|-------------------|---------------------|
|-------------------|---------------------|
|-------------------|---------------------|
|-/10s9-9s7-7s9-x-4-|-(4)s7-7s10-10s9-x-x-|
|---------------x---|-----------------x-x-|
|--/8s7-7s5-5s7-x-2-|-(2)s5-5s=8--8s7-x-x-|
|
| Gtr II
|   E E E E E E E E   +E  E E  E  E E E E
|-------------------|---------------------|
|-------------------|---------------------|
|-------------------|---------------------|
|--10s9-9s7-7s9-x-4-|-(4)s7-7s10-10s9-x-x-|
|--10s9-9s7-7s9-x-4-|-(4)s7-7s10-10s9-x-x-|
|---8s7-7s5-5s7-x-2-|-(2)s5-5s=8--8s7-x-x-|


  C5 B5  A5  B5  F#5             C#C5
   E E E E E E E E   +E  E E E E E E +E
|------------------|-----------------------|
|------------------|-----------------------|
|------------------|-----------------------|
|-10s9-9s7-7s9-x-4-|-(4)-4-------6-5-(5)/--|
|--------------x-4-|-(4)-4-------4-3-(3)/--|
|--8s7-7s5-5s7-x-2-|-(2)-2-2-2-2-----------|
|
|  E E E E E E E E   +E  E E E E E E +E
|------------------|-----------------------|
|------------------|-----------------------|
|------------------|-----------------------|
|-10s9-9s7-7s9-x-4-|-(4)-4-------6-5-(5)/--|
|-10s9-9s7-7s9-x-4-|-(4)-4-------4-3-(3)/--|
|--8s7-7s5-5s7-x-2-|-(2)-2-2-2-2-----------|


  N.C.
    E  E  E  E  E  E E E   +E   E  E  E  E  E E E
|------------------------|------------------------|
|------------------------|------------------------|
|------------------------|------------------------|
|-/10s=9--9s=7--7s=9-x-4-|-(4)s=7--7s10-10s=9-x-x-|
|--------------------x---|--------------------x-x-|
|--/8s=7--7s=5--5s=7-x-2-|-(2)s=5--5s=8--8s=7-x-x-|
|
|   E  E  E  E  E  E E E   +E   E  E  E  E  E E E
|------------------------|------------------------|
|------------------------|------------------------|
|------------------------|------------------------|
|-/13s12-12s10-10s12-x-7-|-(7)s10-10s13-13s12-x-x-|
|--------------------x---|--------------------x-x-|
|-/11s10-10s=8--8s10-x-5-|-(5)s=8--8s11-11s10-x-x-|


                      F#5
                                            Gtr III
                           |3-| |-3-|       |-3-|
   E  E  E  E  E  E E E    Q  E E E E E E E S S S
|-----------------------|-------------------------||
|-----------------------|-------------------------||
|-----------------------|-------------------------||
|-10s=9--9s=7--7s=9-x-4-|--4--4-4-4-4-4---------9-||
|-------------------x-4-|--4--4-4-4-4-4-------9---||
|--8s=7--7s=5--5s=7-x-2-|--2--2-2-2-2-2-----7-----||
|
|                          |3-| |-3-|
|  E  E  E  E  E  E E E   +Q  E E E E E E Q
|-----------------------|-------------------------||
|-----------------------|-------------------------||
|-----------------------|-------------------------||
|-13s12-12s10-10s12-x-4-|-(4)-4-4-4-4-4-----------||
|-------------------x-4-|-(4)-4-4-4-4-4-----------||
|-11s10-10s=8--8s10-x-2-|-(2)-2-2-2-2-2-----------||


 Guitar Solo
  B5                     A5       G5           F#5                  G5    F#5
  Gtrs I, II
  W                      H         H            S S E E E E    E     E    E
|----------------------|---------------------|---------------------------------|
|----------------------|---------------------|---------------------------------|
|-4--------------------|-2-------------------|---------------------------------|
|-4--------------------|-2---------5---------|---------------------------------|
|-2--------------------|-0---------5---------|--4-4-4-4-4-4----4-----5s===4----|
|----------------------|-----------3---------|--2-2-2-2-2-2----2-----3s===2----|
|
| Gtr III
| E E  Q    +Q.    S S   Q.   S S  Q.   S  S    H         S  S S  S  S  S S  S
|----------------------|---------------------|-----------------9h10h12p10p9----|
|----------------------|---------------------|------------------------------12p|
|-6-7--------------6h7-|-9----7h9-11----9h12-|-11---------9h11-----------------|
|-----[9]--([9])-------|---------------------|---------------------------------|
|----------------------|---------------------|---------------------------------|
|----------------------|---------------------|---------------------------------|
|
| Gtr IV
| W                      H         H            W
|----------------------|---------------------|---------------------------------|
|-7--------------------|-8--------10---------|-11------------------------------|
|----------------------|---------------------|---------------------------------|
|----------------------|---------------------|---------------------------------|
|----------------------|---------------------|---------------------------------|
|----------------------|---------------------|---------------------------------|


  G5      F#5                  G5
    E      E     E     E     S S    E     E     S  S
|------------------------------------------------------|
|------------------------------------------------------|
|------------------------------------------------------|
|------------------------------------------------------|
|--/5s=====4-----4-----4-----4-5----5-----5-----x--x---|
|--/3s=====2-----2-----2-----2-3----3-----3-----x--x---|
|
|                            |----3----|
|   S   S  S  S  S  S  S  S  E    E    E  S  S  S  S
|------------------------------------------------------|
|--11-----------11-------------------------------------|
|------12p11h12----12p11-------------------------------|
|------------------------14-12p==11h==12-14p12p11h14---|
|------------------------------------------------------|
|------------------------------------------------------|
|
|  +W
|------------------------------------------------------|
|-(11)-------------------------------------------------|
|------------------------------------------------------|
|------------------------------------------------------|
|------------------------------------------------------|
|------------------------------------------------------|


  B5                    A5        G5         F#5                G5   F#5
   W                     H        H          S S E E E E   E    E    E
|---------------------|--------------------|-----------------------------|
|---------------------|--------------------|-----------------------------|
|--4------------------|--2-----------------|-----------------------------|
|--4------------------|--2--------5--------|-----------------------------|
|--2------------------|--0--------5--------|-4-4-4-4-4-4---4----5s===4---|
|---------------------|-----------3--------|-2-2-2-2-2-2---2----3s===2---|
|
|              |-3--|
|  Q   +H      E  E E    Q.   S S Q.   S S   H         S S S  S S  S S S
|---------------------|--------------------|-----------------------------|
|---------------------|--------------------|-----------------------------|
|---------------------|--------------------|-----------------------------|
|-12--(12)----12-11-9-|-11----9p7-9----7h9-|-8---------8h9p8---------8h9-|
|---------------------|--------------------|-----------------10p9h10-----|
|---------------------|--------------------|-----------------------------|
|
|  W                     H        H          W
|---------------------|--------------------|-----------------------------|
|--7------------------|--5--------3--------|-2---------------------------|
|---------------------|--------------------|-----------------------------|
|---------------------|--------------------|-----------------------------|
|---------------------|--------------------|-----------------------------|
|---------------------|--------------------|-----------------------------|


  G5     F#5                  G5
   E      E     E     E     S  S  E    E     S  S
|----------------------------------------------------|
|----------------------------------------------------|
|----------------------------------------------------|
|----------------------------------------------------|
|-/5s=====4-----4-----4-----4--5--5----5-----x--x----|
|-/3s=====2-----2-----2-----2--3--3----3-----x--x----|
|
|  S   S  S  S  S  S  S  S  S  S  S S  S  S  S  S
|----------------------------------------------------|
|--------------11h12h14p12p11------------------------|
|--------11h12----------------12p11-9-11h12p11-------|
|-11h=14---------------------------------------14----|
|----------------------------------------------------|
|----------------------------------------------------|
|
| +W
|----------------------------------------------------|
|-(2)------------------------------------------------|
|----------------------------------------------------|
|----------------------------------------------------|
|----------------------------------------------------|
|----------------------------------------------------|


  B5                        A5          G5
   H.            +E   S S    H           H
|-------------------------|----------------------------|
|-------------------------|----------------------------|
|--4-------------(4)--x-x-|--2-------------------------|
|--4-------------(4)--x-x-|--2-----------5-------------|
|--2-------------(2)--x-x-|--0-----------5-------------|
|-------------------------|--------------3-------------|
|
|                                              |--3--|
|  H      +E   E  E   E      E  E  E  E  E  E  E  E  E
|-------------------------|----------------------------|
|----------------12-------|-14----15----14----15p12----|
|-11-----(11)-11-----11---|----11----11----11-------14-|
|-------------------------|----------------------------|
|-------------------------|----------------------------|
|-------------------------|----------------------------|
|
|  W                         H           H
|-------------------------|----------------------------|
|-------------------------|----------------------------|
|--7----------------------|--6-----------4-------------|
|-------------------------|----------------------------|
|-------------------------|----------------------------|
|-------------------------|----------------------------|


  G         F#              E5    F#   G
  Q          Q         E     E    E    E
|--------------------------------------------|
|--------------------------------------------|
|-4----------3--------------------3----4-----|
|-5----------4---------x-----2----4----5-----|
|-5----------4---------x-----2----4----5-----|
|-3----------2---------x-----0----2----3-----|
|
| S  S S  S  S  S S  S S  S  S  S S  S S  S
|-9h10p9----------9h10p9----------9h10p9-----|
|--------12-11h12--------12-11h12--------12s=|
|--------------------------------------------|
|--------------------------------------------|
|--------------------------------------------|
|--------------------------------------------|
|
| W
|--------------------------------------------|
|--------------------------------------------|
|--------------------------------------------|
|--------------------------------------------|
|--------------------------------------------|
|--------------------------------------------|


           F#                         N.C.            A5  G5
  +Q        Q       E   E   S S E     E   E   E   E   E   E   E   E
|-----------------------------------|---------------------------------|
|-----------------------------------|---------------------------------|
|-(4)-------3-----------------------|---------------------------------|
|-(5)-------4-------x---x---x-x-x---|---------------------------------|
|-(5)-------4-------x---x---x-x-x---|-----------------7s==5-------5---|
|-(3)-------2-------x---x---x-x-x---|-0---6---4---0---5s==3---0---3---|
|
|                                                   T             T
|  S S S S  S S S S S S S S S S S S   S S S S S S S S S S S S S S S S
|-----------------------------------|---------------------------------|
|-11p8s7s8h11p8s7---------5---------|---------------------------------|
|-----------------9s7p6h7---7p6p4s3-|-------3-------------------------|
|-----------------------------------|-5p4h5---5p4p2-------------------|
|-----------------------------------|---------------5p4p2h4h5p4p2-----|
|-----------------------------------|-----------------------------5p3-|


           F#5         E5  F#5    G5
  +Q       Q       E   E   E      E
|------------------------------------|
|------------------------------------|
|------------------------------------|
|------------------------------------|
|-(5)------4-------x---2---4------5--|
|-(3)------2-------x---0---2------3--|
|
|  S S S S S S S S S S S S S +S   E
|------------------------------------|
|------------------------------------|
|------------------------------------|
|------------------------------------|
|------------------------------------|
|--2h5p3p2h5p3p2p0h2h3p2h3p2-(2)/----|


  G5        F#5
   E    S S E   E   E    E     E    E
|----------------------------------------|
|----------------------------------------|
|----------------------------------------|
|----------------------------------------|
|--5----5-5-4---x---x----x-----x---------|
|--3----3-3-2---x---x----x-----x----0----|
|
|                   |---3---|  |---3---|
|  Q.          +E   E  E    E  E  E    E
|-17b19r======(17)-17-15-----------------|
|--------------------------19-17-15---14-|
|----------------------------------------|
|----------------------------------------|
|----------------------------------------|
|----------------------------------------|
|
| Gtr IV
|  W
|----------------------------------------|
|----------------------------------------|
|----------------------------------------|
|----------------------------------------|
|----------------------------------------|
|----------------------------------------|


  Bsus2                Asus2       G5
   H     H              H           H
|--2-----2--------|-----0----------------------|
|--2-----2--------|-----0-----------3----------|
|--4-----4--------|-----2-----------0----------|
|--4-----4--------|-----2-----------0----------|
|--2-----2--------|-----0----------------------|
|-----------------|-----------------3----------|
|
|        \1/
|  ~~~                  ~~~         ~~~
|  H     Q     Q     a  Q.    S  S  Q.    +E
|-----------------|----------------------------|
|-15s===14p===12--|-12h14----12-10-12----(12)\-|
|-----------------|----------------------------|
|-----------------|----------------------------|
|-----------------|----------------------------|
|-----------------|----------------------------|
|
|  ~~~
|  W                    H           H
|-----------------|----------------------------|
|--7--------------|----------------------------|
|-----------------|-----9-----------7----------|
|-----------------|----------------------------|
|-----------------|----------------------------|
|-----------------|----------------------------|


    C5   B5     A5      B5   F#5       A5         C5         B5
    Gtr I
      E  E   E  E    E  E  E  E    +E    E     E    E     E  E  E     E
|-------------------------------|---------------------------------------------|
|-------------------------------|---------------------------------------------|
|-------------------------------|---------------------------------------------|
|---/10s=9---9s=7----7s=9--x--4-|--(4)s==7-----7s==10----10s=9--x-----x-------|
|--------------------------x----|-------------------------------x-----x-------|
|----/8s=7---7s=5----5s=7--x--2-|--(2)s==5-----5s===8-----8s=7--x-----x-------|
|
|   Gtr II
|     E  E   E  E    E  E  E  E    +E    E     E    E     E  E  E     E
|-------------------------------|---------------------------------------------|
|-------------------------------|---------------------------------------------|
|-------------------------------|---------------------------------------------|
|----10s=9---9s=7----7s=9--x--4-|--(4)s==7-----7s==10----10s=9--x-----x-------|
|----10s=9---9s=7----7s=9--x--4-|--(4)s==7-----7s==10----10s=9--x-----x-------|
|-----8s=7---7s=5----5s=7--x--2-|--(2)s==5-----5s===8-----8s=7--x-----x-------|
|
| Gtr III
|     \1/    \1/     \1/                 \1/   \1/  \1/
|                                                         ~~~~
|                                                               |----3----|
| a   E  E a E  E a  E  E  E  E    +E   +E    +E   +E    +Q     Q        +E
|-------------------------------|---------------------------------------------|
|-------------------------10----|------------------------------12b14====(12)r-|
|---------------6-------9----11-|-(11)-(11)--(11)-(11)--(11)------------------|
|--------7-7h9----9h11----------|---------------------------------------------|
|-7h==9-------------------------|---------------------------------------------|
|-------------------------------|---------------------------------------------|


  C5    B5        A5      B5      F#5
   E    E    E    E     E  E E     E
|-----------------------------------------|
|-----------------------------------------|
|-----------------------------------------|
|-10s===9----9s===7-----7s=9-x-----4------|
|-10s===9----9s===7-----7s=9-x-----4------|
|--8s===7----7s===5-----5s=7-x-----2------|
|
|  E    E    E    E     E  E E     E
|-----------------------------------------|
|-----------------------------------------|
|-----------------------------------------|
|-10s===9----9s===7-----7s=9-x-----4------|
|-10s===9----9s===7-----7s=9-x-----4------|
|--8s===7----7s===5-----5s=7-x-----2------|
|
|  |--3---|  |---3---|
|  E  E   E  E  E    E  E  E S  S  E
|--9h12p==9------------------9h12-12------|
|-----------12p10------10-12------12b14===|
|-------------------11--------------------|
|-----------------------------------------|
|-----------------------------------------|
|-----------------------------------------|


  F#5                        C#C5
  +E    E     E     E     E  E   E    +E
|------------------------------------------||
|------------------------------------------||
|------------------------------------------||
|-(4)---4--------------------6---5----(5)/-||
|-(4)---4--------------------4---3----(3)/-||
|-(2)---2-----2-----2-----2----------------||
|
| +E    E     E     E     E  E   E    +E
|------------------------------------------||
|------------------------------------------||
|------------------------------------------||
|-(4)---4--------------------6---5----(5)/-||
|-(4)---4--------------------4---3----(3)/-||
|-(2)---2-----2-----2-----2----------------||
|
|       \1/   \1/   \1/
|  E   +E    +E    +E    +Q     +Q
|-12--(12)--(12)--(12)--(12)---(12)\-------||
|-12--(12)--(12)--(12)--(12)---(12)r\------||
|------------------------------------------||
|------------------------------------------||
|------------------------------------------||
|------------------------------------------||


  N.C.
    E  E  E  E  E  E E E   +E   E  E  E  E  E E   E
|------------------------|--------------------------|
|------------------------|--------------------------|
|------------------------|--------------------------|
|-/10s=9--9s=7--7s=9-x-4-|-(4)s=7--7s10-10s=9-x---x-|
|--------------------x---|--------------------x---x-|
|--/8s=7--7s=5--5s=7-x-2-|-(2)s=5--5s=8--8s=7-x---x-|
|
|   E  E  E  E  E  E E E   +E   E  E  E  E  E S S E
|------------------------|--------------------------|
|------------------------|--------------------------|
|------------------------|--------------------------|
|-/13s12-12s10-10s12-x-7-|-(7)s10-10s13-13s12-x-x-x-|
|--------------------x---|--------------------x-x-x-|
|-/11s10-10s=8--8s10-x-5-|-(5)s=8--8s11-11s10-x-x-x-|
|
|   W                       W
|------------------------|--------------------------|
|------------------------|--------------------------|
|------------------------|--------------------------|
|------------------------|--------------------------|
|------------------------|--------------------------|
|------------------------|--------------------------|


    D.S.S. al Dbl. Coda     &&
  N.C.                 F#5      F#
                             |3-| |-3-|
    E  E  E  E  E  E E E    +Q  E E E E E E Q
|------------------------||--------------------*|
|------------------------||--------------------*|
|------------------------||-----3-3-3-3-3------*|
|-/10s=9--9s=7--7s=9-x-4-||-(4)-4-4-4-4-4------*|
|--------------------x-4-||-(4)-4-4-4-4-4------*|
|--/8s=7--7s=5--5s=7-x-2-||-(2)-2-2-2-2-2------*|
|
|                            |3-| |-3-|
|   E  E  E  E  E  E E E    +Q  E E E E E E Q
|------------------------||--------------------*|
|------------------------||--------------------*|
|------------------------||-----3-3-3-3-3------*|
|-/13s12-12s10-10s12-2-4-||-(4)-4-4-4-4-4------*|
|--------------------2-4-||-(4)-4-4-4-4-4------*|
|-/11s10-10s=8--8s10-0-2-||-(2)-2-2-2-2-2------*|



Duration Legend
---------------
W - whole; H - half; Q - quarter; E - 8th; S - 16th; T - 32nd; X - 64th; a - acciaccatura
+ - note tied to previous; . - note dotted; .. - note double dotted
Uncapitalized letters represent notes that are staccato (1/2 duration)
Irregular groupings are notated above the duration line
Duration letters will always appear directly above the note/fret number it represents the
duration for.  Duration letters with no fret number below them represent rests.  Multi-
bar rests are notated in the form Wxn, where n is the number of bars to rest for.  Low
melody durations appear below the staff

Tablature Legend
----------------
 h   - hammer-on
 p   - pull-off
 b   - bend
 pb  - pre-bend
 r   - bend release (if no number after the r, then release immediately)
 /\  - slide into or out of (from/to "nowhere")
 s   - legato slide
 S   - shift slide
 - natural harmonic
[n]  - artificial harmonic
n(n) - tapped harmonic
 ~   - vibrato
 tr  - trill
 T   - tap
 TP  - trem. picking
 PM  - palm muting
\n/  - tremolo bar dip; n = amount to dip
 \n  - tremolo bar down
 n/  - tremolo bar up
/n\  - tremolo bar inverted dip
 =   - hold bend; also acts as connecting device for hammers/pulls
 <> - volume swell (louder/softer)
 x   - on rhythm slash represents muted slash
 o   - on rhythm slash represents single note slash

Misc Legend
-----------
 |  - bar
||  - double bar
||o - repeat start
o|| - repeat end
*|  - double bar (ending)
 :  - bar (freetime)
 $  - Segno
 &  - Coda
Tempo markers -  = BPM(8/16=s8/s16), where s8 = swing 8ths, s16 = swing 16ths

Tap to rate this tab
 
# A B C D E F G H I J K L M N O P Q R S T U V W X Y Z