Song name
# A B C D E F G H I J K L M N O P Q R S T U V W X Y Z

Testament - Henchmen Ride tab

first tab ever
go easy on me

i did this by ear off my phone so if its a bit wrong thats my excuse



e|-----------------|\
B|-----------------||
G|-----------------||- pinch harms
D|------------7--6-||
A|7---8------------|/
E|-000--00000--00--|


e|-----------------|
B|-----------------|
G|------------7--10|
D|------------7--10|
A|7---8-------5---8|
E|-000--00000--00--|


e|------------------|
B|------------------|
G|------------------|
D|------------------|
A|12-11-9--11-10-6h7|
E|------------------|
Tap to rate this tab
 
# A B C D E F G H I J K L M N O P Q R S T U V W X Y Z