Song name
# A B C D E F G H I J K L M N O P Q R S T U V W X Y Z

Testament - Into The Pit tab

#----------------------------------PLEASE NOTE---------------------------------#
#This file is the author's own work and represents their interpretation of the #
#song. You may only use this file for private study, scholarship, or research. #
#------------------------------------------------------------------------------#

INTO THE PIT
As recorded by Testament
(From the 1988 Album THE NEW ORDER)

Transcribed by cbliss66@aol.com (slaya)
	

Words by Chuck Billy, Skolnick and Peterson Music by Alex Skolnick and Eric Peterson
Arranged by Testament

Gtr I (E A D G B E) - 'Alex'
Gtr II (E A D G B E) - 'Eric(Rhy.)'
Gtr III (E A D G B E) - 'Pick slides'

 Intro
  Moderately Q.=126
                                   N.C.(E)
 12/8
  Gtr III                      Gtr I
             TPTPTPTPTPTPTPTPTP    PM----|         PM----|
  H.      E. S S S S S S S S S     S S S E S E E E S S S E S E E E
|------------------------------||----------------------------------|
|------------------------------||o---------------------------------|
|------------------------------||----------------------------------|
|------------------------------||------------7p6-------------------|
|------------xsxsxsxsxsxsxsxsx-||o---------------8-----------8p7-5-|
|------------xsxsxsxsxsxsxsxsx-||--0-0-0-0---------0-0-0-0---------|
|
| Gtr II
|                                  PM----|         PM----|
| W                                S S S E S E E E S S S E S E E E
|------------------------------||----------------------------------|
|------------------------------||o---------------------------------|
|------------------------------||----------------------------------|
|------------------------------||------------7p6-------------------|
|------------------------------||o---------------8-----------8p7-5-|
|------------------------------||--0-0-0-0---------0-0-0-0---------|


  PM----|
  S S S E S E E  E E E E E E E
|-------------------------------|
|-------------------------------|
|-------------------------------|
|------------------6-----7p6----|
|-----------8p7------8-7-----8--|
|-0-0-0-0-------10--------------|
|
| PM----|
| S S S E S E E  E E E E E E E
|-------------------------------|
|-------------------------------|
|-------------------------------|
|------------------6-----7p6----|
|-----------8p7------8-7-----8--|
|-0-0-0-0-------10--------------|


  PM----|           PM----|
  S S S E S  E E  E S S S E S E E E
|-----------------------------------|
|-----------------------------------|
|-----------------------------------|
|-----------10p9--------------7p6---|
|----------------12---------------8-|
|-0-0-0-0-----------0-0-0-0---------|
|
| PM----|           PM----|
| S S S E S  E E  E S S S E S E E E
|-----------------------------------|
|-----------------------------------|
|-----------------------------------|
|------------7p6--------------------|
|-----------------8-----------8p7-5-|
|-0-0-0-0-----------0-0-0-0---------|


 1.                               2.
                                                          F5
  PM----|                          PM----|
  S S S E S E E  E E E E E E E     S S S E S E E  E E E E  Q.
|-------------------------------||-------------------------------|
|------------------------------o||-------------------------------|
|------------------4-----5p4----||------------------4-----10-----|
|-----------7p6------7-6-----7--||-----------7p6------7-6-10-----|
|----------------8-------------o||----------------8--------8-----|
|-0-0-0-0-----------------------||-0-0-0-0-----------------------|
|
| PM----|                          PM----|
| S S S E S E E  E E E E E E E     S S S E S E E  E E E E  Q.
|-------------------------------||-------------------------------|
|------------------------------o||-------------------------------|
|-------------------------------||-------------------------------|
|------------------6-----7p6----||------------------6------3-----|
|-----------8p7------8-7-----8-o||-----------8p7------8-7--3-----|
|-0-0-0-0-------10--------------||-0-0-0-0-------10--------1-----|


              Fast Rock Q=205
                 E5
 4/4
                   PM----|               PM----|
   +W            E E S S S S E E E E   E E S S S S E E E E
|-------------||---------------------|----------------------|
|-------------||---------------------|----------------------|
|-(10)--------||---------------------|----------------------|
|-(10)--------||-------------------6-|-5-----------------6--|
|--(8)--------||-7-----------7-5-7---|-------------7-5-7----|
|-------------||---0-0-0-0-----------|---0-0-0-0------------|
|
|  +W            E E Q       H         W
|-------------||---------------------|----------------------|
|-------------||---------------------|----------------------|
|-------------||-9-------------------|----------------------|
|--(3)--------||-9-------------------|----------------------|
|--(3)--------||-7-------------------|----------------------|
|--(1)--------||---------------------|----------------------|


                                  E5
    PM----|               PM----|
  E E S S S S E E E E   E S S e e q  E +E
|---------------------|---------------------|
|---------------------|---------------------|
|---------------------|-----------9--9-(9)\-|
|-5-----------------6-|-5---------9--9-(9)\-|
|-------------7-5-7---|-----------7--7-(7)\-|
|---0-0-0-0-----------|---0-0-0-0-----------|
|
|                         PM----|
| W                     E S S e e q  E +E
|---------------------|---------------------|
|---------------------|---------------------|
|---------------------|---------------------|
|---------------------|-----------2--2-(2)\-|
|---------------------|-5---------2--2-(2)\-|
|---------------------|---0-0-0-0-----------|


    N.C.(E)
      PM----|               PM----|
    E E S S S S E E E E   E E S S S S E E E E
||----------------------|-----------------------|
||o---------------------|-----------------------|
||----------------------|-----------------------|
||--------------------6-|-5-----------------6---|
||o-7-----------7-5-7---|-------------7-5-7-----|
||----0-0-0-0-----------|---0-0-0-0-------------|
|
|     PM----|               PM----|
|   E E S S S S E E E E   E E S S S S E E E E
||----------------------|-----------------------|
||o---------------------|-----------------------|
||----------------------|-----------------------|
||--------------------6-|-------------------6---|
||o-7-----------7-5-7---|-5-----------7-5-7-----|
||----0-0-0-0-----------|---0-0-0-0-------------|


                       1.                      2.
                                  E5                      E5
    PM----|               PM----|                 PM----|
  E E S S S S E E E E   E S S e e q  E +E       E S S e e Q  Q
|---------------------|----------------------||-----------------||
|---------------------|---------------------o||-----------------||
|---------------------|-----------9--9-(9)\--||-----------------||
|-5-----------------6-|-5---------9--9-(9)\--||-5---------9-----||
|-------------7-5-7---|-----------7--7-(7)\-o||-----------7-----||
|---0-0-0-0-----------|---0-0-0-0------------||---0-0-0-0-------||
|
|   PM----|               PM----|                 PM----|
| E E S S S S E E E E   E S S e e q  E +E       E S S e e Q  Q
|---------------------|----------------------||-----------------||
|---------------------|---------------------o||-----------------||
|---------------------|----------------------||-----------------||
|-------------------6-|-----------2--2-(2)\--||-----------2-----||
|-5-----------7-5-7---|-5---------2--2-(2)\-o||-5---------2-----||
|---0-0-0-0-----------|---0-0-0-0------------||---0-0-0-0-0-----||


   1st & 2nd Verse
    $
    E5    Eb5   E5    Eb5
      PM|         PM|
    E E E S +S  E E E S +S
||--------------------------|
||o-------------------------|
||--------------------------|
||--9-----8-(8)s9-----8-(8)s|
||o-7-----6-(6)s7-----6-(6)s|
||----0-0---------0-0-------|
|
|     PM|         PM|
|   E E E S +S  E E E S +S
||--------------------------|
||o-------------------------|
||--------------------------|
||--9-----8-(8)s9-----8-(8)s|
||o-7-----6-(6)s7-----6-(6)s|
||----0-0---------0-0-------|


  E5    Eb5   E5  F5        E5    Eb5   E5    Eb5
    PM|         PM            PM|         PM|
  E E E S +S  E E  E  +E    E E E S +S  E E E S +S
|-------------------------|---------------------------|
|-------------------------|---------------------------|
|-------------------------|---------------------------|
|-9-----8-(8)s9---10-(10)s|=9-----8-(8)s9-----8-(8)s==|
|-7-----6-(6)s7----8--(8)s|=7-----6-(6)s7-----6-(6)s==|
|---0-0---------0---------|---0-0---------0-0---------|
|
|   PM|         PM            PM|         PM|
| E E E S +S  E E  E  +E    E E E S +S  E E E S +S
|-------------------------|---------------------------|
|-------------------------|---------------------------|
|-------------------------|---------------------------|
|-9-----8-(8)s9---10-(10)s|=9-----8-(8)s9-----8-(8)s==|
|-7-----6-(6)s7----8--(8)s|=7-----6-(6)s7-----6-(6)s==|
|---0-0---------0---------|---0-0---------0-0---------|


  E5    Eb5   E5  F5F5      E5    Eb5   E5    Eb5     E5    Eb5   E5  F5
    PM|         PM            PM|         PM|           PM|         PM
  E E E S +S  E E  E  +E    E E E S +S  E E E S +S    E E E S +S  E E  E  +E
|-------------------------|-------------------------|--------------------------|
|-------------------------|-------------------------|--------------------------|
|-------------------------|-------------------------|--------------------------|
|-9-----8-(8)s9---10-(10)s|=9-----8-(8)s9-----8-(8)s|=9-----8-(8)s9---10-(10)s=|
|-7-----6-(6)s7----8--(8)s|=7-----6-(6)s7-----6-(6)s|=7-----6-(6)s7----8--(8)s=|
|---0-0---------0---------|---0-0---------0-0-------|---0-0---------0----------|
|
|   PM|         PM            PM|         PM|           PM|         PM
| E E E S +S  E E  E  +E    E E E S +S  E E E S +S    E E E S +S  E E  E  +E
|-------------------------|-------------------------|--------------------------|
|-------------------------|-------------------------|--------------------------|
|-------------------------|-------------------------|--------------------------|
|-9-----8-(8)s9---10-(10)s|=9-----8-(8)s9-----8-(8)s|=9-----8-(8)s9---10-(10)s=|
|-7-----6-(6)s7----8--(8)s|=7-----6-(6)s7-----6-(6)s|=7-----6-(6)s7----8--(8)s=|
|---0-0---------0---------|---0-0---------0-0-------|---0-0---------0----------|


                                                  1.
                                    To Coda
  E5    Eb5   E5    Eb5     E5      E5  F5         N.C.(E)
    PM|         PM|           PM--|   PM             PM----|
  E E E S +S  E E E S +S    E E E E E E  E  +E     E E S S S S E E E E
|-------------------------|---------------------||---------------------|
|-------------------------|---------------------||---------------------|
|-------------------------|---------------------||---------------------|
|-9-----8-(8)s9-----8-(8)s|=9-------9---10-(10)-||-------------------6-|
|-7-----6-(6)s7-----6-(6)s|=7-------7----8--(8)-||-7-----------7-5-7---|
|---0-0---------0-0-------|---0-0-0---0---------||---0-0-0-0-----------|
|
|   PM|         PM|           PM--|   PM             PM----|
| E E E S +S  E E E S +S    E E E E E E  E  +E     E E S S S S E E E E
|-------------------------|---------------------||---------------------|
|-------------------------|---------------------||---------------------|
|-------------------------|---------------------||---------------------|
|-9-----8-(8)s9-----8-(8)s|=9-------9---10-(10)-||-------------------6-|
|-7-----6-(6)s7-----6-(6)s|=7-------7----8--(8)-||-7-----------7-5-7---|
|---0-0---------0-0-------|---0-0-0---0---------||---0-0-0-0-----------|


    PM----|               PM----|
  E E S S S S E E E E   E E S S S S E E E E
|---------------------|---------------------|
|---------------------|---------------------|
|---------------------|---------------------|
|-5-----------------6-|-5-----------------6-|
|-------------7-5-7---|-------------7-5-7---|
|---0-0-0-0-----------|---0-0-0-0-----------|
|
|   PM----|               PM----|
| E E S S S S E E E E   E E S S S S E E E E
|---------------------|---------------------|
|---------------------|---------------------|
|---------------------|---------------------|
|-------------------6-|-------------------6-|
|-5-----------7-5-7---|-5-----------7-5-7---|
|---0-0-0-0-----------|---0-0-0-0-----------|


            E5          N.C.(E)
    PM----|               PM----|
  E S S e e q  E +E     E E S S S S E E E E
|---------------------|-----------------------|
|---------------------|-----------------------|
|-----------9--9-(9)\-|-------------------5---|
|-5---------9--9-(9)\-|-------------5-4-5-----|
|-----------7--7-(7)\-|-7---------------------|
|---0-0-0-0-----------|---0-0-0-0-------------|
|
|   PM----|               PM----|
| E S S e e q  E +E     E E S S S S E E E E
|---------------------|-----------------------|
|---------------------|-----------------------|
|---------------------|-----------------------|
|-----------2--2-(2)\-|-------------------6---|
|-5---------2--2-(2)\-|-7-----------7-5-7-----|
|---0-0-0-0-----------|---0-0-0-0-------------|


                                                        E5
    PM----|               PM----|               PM----|
  E E S S S S E E E E   E E S S S S E E E E   E S S e e Q.   +E
|---------------------|---------------------|----------------------||
|---------------------|---------------------|---------------------o||
|-4-----------------5-|-4-----------------5-|-4---------9----(9)\--||
|-------------5-4-5---|-------------5-4-5---|-----------9----(9)\--||
|---------------------|---------------------|-----------7----(7)\-o||
|---0-0-0-0-----------|---0-0-0-0-----------|---0-0-0-0------------||
|
|   PM----|               PM----|               PM----|
| E E S S S S E E E E   E E S S S S E E E E   E S S e e Q.   +E
|---------------------|---------------------|----------------------||
|---------------------|---------------------|---------------------o||
|---------------------|---------------------|----------------------||
|-------------------6-|-5-----------------6-|-----------2----(2)\--||
|-5-----------7-5-7---|-------------7-5-7---|-5---------2----(2)\-o||
|---0-0-0-0-----------|---0-0-0-0-----------|---0-0-0-0------------||


   Chorus
    2.
    E5    G5    A5      Bb5   F5
      PM|   PM|   PM--|   PM------------|
    E E E E E E E E   E E E E S S E S S E
||------------------|---------------------|
||o-----------------|---------------------|
||------------------|---------------------|
||--2-----5-----7---|---8-----------------|
||o-2-----5-----7---|---8-----3-3---3-3---|
||--0-0-0-3-0-0-5-0-|-0-6-0-0-1-1-0-1-1-0-|
|
|     PM|   PM|   PM--|   PM------------|
|   E E E E E E E E   E E E E S S E S S E
||------------------|---------------------|
||o-----------------|---------------------|
||------------------|---------------------|
||--2-----5-----7---|---8-----------------|
||o-2-----5-----7---|---8-----3-3---3-3---|
||--0-0-0-3-0-0-5-0-|-0-6-0-0-1-1-0-1-1-0-|


  N.C.
            PM--|
  E E E E E E E E   E E E E E E E E   4x
|-----------------|-------------------||
|-----------------|------------------o||
|-----------------|-------------------||
|-----------------|-------------------||
|-----------------|------------------o||
|-0-6-5-3-5-0-3-5-|-6-5-3-5-3-2-3-2---||
|
|           PM--|
| E E E E E E E E   E E E E E E E E   4x
|-----------------|-------------------||
|-----------------|------------------o||
|-----------------|-------------------||
|-----------------|-------------------||
|-----------------|------------------o||
|-0-6-5-3-5-0-3-5-|-6-5-3-5-3-2-3-2---||


  E                 G5                A5
   T           T           T           T
   S  S  S  S  S  S  S  S  S  S  S  S  S  S  S  S
|-------------------------------------------------|
|-17p15p14p12-17p15p14p12-17p15p14p12-17p15p14p12-|
|-------------------------------------------------|
|-------------------------------------------------|
|-------------------------------------------------|
|-------------------------------------------------|
|
|  Q.                Q.                Q
|-------------------------------------------------|
|-------------------------------------------------|
|--------------------------------------2----------|
|--2-----------------5-----------------2----------|
|--2-----------------5-----------------0----------|
|--0-----------------3----------------------------|


         Fsus4
   S   S  S   S  S  S  S  S  S   S  E  S  S  S  S
|-15--14-12----------------------------------------||
|------------15-14p12------------------------------||
|---------------------14-12------------------------||
|---------------------------16p=14-12--------------||
|-------------------------------------14-12--------||
|-------------------------------------------15-12--||
|
| +E      Q.                +H
|--------------------------------------------------||
|--------------------------------------------------||
|-(2)-----3-----------------(3)--------------------||
|-(2)-----3-----------------(3)--------------------||
|-(0)-----1-----------------(1)--------------------||
|---------1-----------------(1)--------------------||


 Guitar Solo
  Bsus4   Asus4 Bsus4    Asus4   Bsus4    Asus4 Bsus4
   ~~~~~~~~~~~~~~~~~~~~~~~~~~~~~~~~~~~
   H.                 Q           +H             E.  E.    E
|------------------------------|--------------------12-------|
|------------------------------|----------------12--------12-|
|------------------------------|-----------------------------|
|--------------------14--------|-(14)------------------------|
|------------------------------|-----------------------------|
|-12----------------(12)-------|-(12)------------------------|
|
|     PM|         PM|                 PM|
|  E  E E S +S  E E   E  S +S      E  E E S +S   Q      Q
|------------------------------|-----------------------------|
|------------------------------|-----------------------------|
|------------------------------|-----------------------------|
|------------------------------|-----------------------------|
|--7------5-(5)s7--------5-(5)s|===7------5-(5)s=7------7----|
|--7--0-0-5-(5)s7-0---0--5-(5)s|===7--0-0-5-(5)s=7------7----|


                   Asus4 Bsus4 Asus4   Bsus4    Asus4 Bsus4
        \1/
                ~~~~~~~~~~~~~~~~~~~~~~~~~~~~
   +S   E.     +H.                      +H             +E  E E S S
|------------------------------------|---------------------0-3-3h5h==|
|-(12)-11-----(11)-------------------|-(11)-----------(11)-----------|
|------------------------------------|-------------------------------|
|------------------------------------|-------------------------------|
|------------------------------------|-------------------------------|
|------------------------------------|-------------------------------|
|
|           PM|            PM|              PM|
|   E       E   E  S +S  E E E S +S      E  E E S +S    Q    Q
|------------------------------------|-------------------------------|
|------------------------------------|-------------------------------|
|------------------------------------|-------------------------------|
|------------------------------------|-------------------------------|
|---7--------------5-(5)s7-----5-(5)s|===7------5-(5)s==7----7-------|
|---7-------0---0--5-(5)s7-0-0-5-(5)s|===7--0-0-5-(5)s==7----7-------|


  Bsus4         Asus4     Bsus4           Asus4
      |-3-|        |-3--|
  S S S S S S S S  T  T T S S T T T T S S S a  S
|-7p3-3h5h7p3p0-3--5h=7p5p3p0---3h5h7p3p0---3h=5--|
|-----------------------------3-----------3-------|
|-------------------------------------------------|
|-------------------------------------------------|
|-------------------------------------------------|
|-------------------------------------------------|
|
|     PM----|                 PM------|
| E   E     E   S +S      E   E       E   S   +S
|-------------------------------------------------|
|-------------------------------------------------|
|-------------------------------------------------|
|-------------------------------------------------|
|-7-------------5-(5)s====7---------------5---(5)s|
|-7---0-----0---5-(5)s====7---0-------0---5---(5)s|


  Bsus4            Asus4      Bsus4
            |-------5-------| |----5-----|
  S S  S  S S S  S    S     S S S  S  S  S  E  a  S  S
|-7p0-10h12-7p0-10h==12-----7p0h7-10h12p10----15h17p15p==|
|------------------------------------------12------------|
|--------------------------------------------------------|
|--------------------------------------------------------|
|--------------------------------------------------------|
|--------------------------------------------------------|
|
|      PM---|
| E    E    E      S    +S    Q             Q
|--------------------------------------------------------|
|--------------------------------------------------------|
|--------------------------------------------------------|
|--------------------------------------------------------|
|-7----------------5----(5)s==7-------------7------------|
|-7----0----0------5----(5)s==7-------------7------------|


  Bsus4             Asus4  Bsus4          Asus4
   S  S  S  S  S  S  S  S   E  S  S  S  S  S  S
|-12h15h17p15p12h15h18p15p=12-18p12-18-18h19p18p=|
|------------------------------------------------|
|------------------------------------------------|
|------------------------------------------------|
|------------------------------------------------|
|------------------------------------------------|
|
|        PM---|                PM---|
|  E     E     E     S +S   E  E     E     S +S
|------------------------------------------------|
|------------------------------------------------|
|------------------------------------------------|
|------------------------------------------------|
|--7-----------------5-(5)s=7--------------5-(5)s|
|--7-----0-----0-----5-(5)s=7--0-----0-----5-(5)s|


  Bsus4        Asus4  Bsus4
                ~~~~~~~~~~~
   |---3---|
   E  E    E E  E      +Q    +E    a  E
|-15-12-----------------------------------|
|---------12----------------------10h12h==|
|------------0-15-----(15)--(15)\---------|
|-----------------------------------------|
|-----------------------------------------|
|-----------------------------------------|
|
|       PM---|
|  E    E    E  S +S    Q     Q
|-----------------------------------------|
|-----------------------------------------|
|-----------------------------------------|
|-----------------------------------------|
|--7------------5-(5)s==7-----7-----------|
|--7----0----0--5-(5)s==7-----7-----------|


  E5
                                       |--3--|
   S  S  E  S  S  S  S  S  S  S  S  E  S  S  S
|----------------------------------------------|
|-13p12h13-12-12h13-12h13p12-13-12-12-13h15p13-|
|----------------------------------------------|
|----------------------------------------------|
|----------------------------------------------|
|----------------------------------------------|
|
|  PM---|         PM---------|
|  E     E  E     E     E     E     Q
|----------------------------------------------|
|----------------------------------------------|
|----------------------------------------------|
|----------------------------------------------|
|-----------2-----------------------2----------|
|--0-----0--0-----0-----0-----0-----0----------|


  G5                     C5          Bb5          E5
   |---3---|
   E  E    E  S  S  S  S  S  S  S  S  S S  S  S    S  S  S  S  S  S  S  S  S  S E E  S  S
|-----------------------------------------------|----------12-------------------0---12----|
|-12h13p==12p10h12p10---------------------12h13p|=12h13p12----12h13p12h13p12------0----15-|
|---------------------12h14p12p11h12p11p9-------|----------------------------12-----------|
|-----------------------------------------------|-----------------------------------------|
|-----------------------------------------------|-----------------------------------------|
|-----------------------------------------------|-----------------------------------------|
|
|  PM---|                 PM---|                   PM---|            PM---------|
|  E    E     Q           E     E     Q            E     E     E     E     E    E Q
|-----------------------------------------------|-----------------------------------------|
|-----------------------------------------------|-----------------------------------------|
|-----------------------------------------------|-----------------------------------------|
|-------------------------5-----5-----3---------|-----------------------------------------|
|--5----5-----5-----------3-----3-----1---------|--------------2------------------2-------|
|--3----3-----3---------------------------------|--0-----0-----0-----0-----0----0-0-------|


  G5                   C5           Bb5  E5
                                 ~~~
               |--3--|  |--3--|
   S  S  S  S  E  E  E  S  S  S  Q.       E  S  S  S  S  S  S  E  S  S  E  T  T  T  T
|--------------------------------------|----------------------------------------------|
|-13p12--------------------------------|----------------------------------------------|
|-------14p12p11-----------------------|----------------------------------11h12p11h12-|
|----------------14p12-----------------|-------------------------------12-------------|
|----------------------14h15p14--------|----12h14h15p14-12-------12h14----------------|
|-------------------------------12-----|-14----------------15p14----------------------|
|
|  PM---|                                 PM|            PM------|
|  E     E     Q        Q           Q     E  E     E     E     E  E     Q
|--------------------------------------|----------------------------------------------|
|--------------------------------------|----------------------------------------------|
|--------------------------------------|----------------------------------------------|
|-----------------------5-----------3--|----------------------------------------------|
|--5-----5-----5--------3-----------1--|-----------2--------------------2-------------|
|--3-----3-----3-----------------------|--0--0-----0-----0-----0--0-----0-------------|


  G5                   C5         Bb5
               |--3--|  |---3---|  |-----5-----|
   S  S  S  S  E  E  E  E  E    E  S  S  S  S  S
|-------------------------------------------------|
|------------------------------13-15p13-----------|
|-11-------------------15h16------------16p15-----|
|----14p12----12h14s16------------------------17--|
|----------15-------------------------------------|
|-------------------------------------------------|
|
|  PM---|               PM---|
|  E     E     Q        E    E     Q
|-------------------------------------------------|
|-------------------------------------------------|
|-------------------------------------------------|
|-----------------------5----5-----3--------------|
|--5-----5-----5--------3----3-----1--------------|
|--3-----3-----3----------------------------------|


  E5
   |---3---|
   E  E    E  S  S  S  S  S  S  E  S  E  S
|------------------14----------------14----|
|---------13-15s17----17-14h15h17-12----16s|
|-14-14------------------------------------|
|------------------------------------------|
|------------------------------------------|
|------------------------------------------|
|
|  PM---|           PM---------|
|  E    E     E     E     E     E  Q
|------------------------------------------|
|------------------------------------------|
|------------------------------------------|
|------------------------------------------|
|-------------2--------------------2-------|
|--0----0-----0-----0-----0-----0--0-------|


  G5                     C5       Bb5     N.C.(E)
                                            ~~~~~~~~
                    |3-|
   S  E    S  S  S  E  S  E  S  S  E  E    +W
|----14h==17p14----14-17h19-14-14-17-14-|-(14)b16====================|
|-17------------17----------------------|----------------------------|
|---------------------------------------|----------------------------|
|---------------------------------------|----------------------------|
|---------------------------------------|----------------------------|
|---------------------------------------|----------------------------|
|
|  PM---|                                          PM----|
|  E    E     Q           Q        Q        E      E S S S S E E E E
|---------------------------------------|----------------------------|
|---------------------------------------|----------------------------|
|---------------------------------------|----------------------------|
|-------------------------5--------3----|--------------------------6-|
|--5----5-----5-----------3--------1----|---7----------------7-5-7---|
|--3----3-----3-------------------------|----------0-0-0-0-----------|


    ~~~~
   +H.                +E    E    S  S  S  S  S  S  S  S  S  S  S  S  S  S  S  S
|-(14)---------------(14)r----|-15h19p15p12----15h19p15-12----12-15h19p15-12----|
|--------------------------16-|-------------12-------------12----------------12-|
|-----------------------------|-------------------------------------------------|
|-----------------------------|-------------------------------------------------|
|-----------------------------|-------------------------------------------------|
|-----------------------------|-------------------------------------------------|
|
|      PM----|                         PM---------|
|   E  E S S S S E E   E    E    E     E     S  S  S  S  E     E     E     E
|-----------------------------|-------------------------------------------------|
|-----------------------------|-------------------------------------------------|
|-----------------------------|-------------------------------------------------|
|---5-----------------------6-|--5-----------------------------------------6----|
|----------------7-5---7------|--------------------------7-----5-----7----------|
|------0-0-0-0----------------|--------0-----0--0--0----------------------------|


                         E5
                          ~~
   S  E    S  S  S  S  S  Q   +Q
|-15h19p==15-12----------------------||
|---------------12-------------------||
|------------------12----------------||
|---------------------14-------------||
|------------------------14--(14)\---||
|------------------------------------||
|
|       PM---------|
|  E    S  S  e     e     q    Q
|------------------------------------||
|------------------------------------||
|------------------------------------||
|--5----------------------2----2\----||
|-------------------------2----2\----||
|-------0--0--0-----0-----0----0-----||


  N.C.(E)
                                                                   2/4
    PM----|               PM----|               PM----|               PM--|
  E E S S S S E E E E   E E S S S S E E E E   E E S S S S E E E E   E E E E
|---------------------|---------------------|---------------------|---------||
|---------------------|---------------------|---------------------|---------||
|-------------------5-|-4-----------------5-|-4-----------------5-|-4-------||
|-------------5-4-5---|-------------5-4-5---|-------------5-4-5---|---------||
|-7-------------------|---------------------|---------------------|---------||
|---0-0-0-0-----------|---0-0-0-0-----------|---0-0-0-0-----------|---0-0-0-||
|
|   PM----|               PM----|               PM----|               PM--|
| E E S S S S E E E E   E E S S S S E E E E   E E S S S S E E E E   E E E E
|---------------------|---------------------|---------------------|---------||
|---------------------|---------------------|---------------------|---------||
|---------------------|---------------------|---------------------|---------||
|-------------------6-|-5-----------------6-|-5-----------------6-|-5-------||
|-7-----------7-5-7---|-------------7-5-7---|-------------7-5-7---|---------||
|---0-0-0-0-----------|---0-0-0-0-----------|---0-0-0-0-----------|---0-0-0-||


 Intro Recap
  N.C.(E)
 12/8
  PM--|       PM----|           PM----|
  E E E E E E S S S E S E E E   S S S E S E E  E E E E E E E
|-----------------------------|------------------------------|
|-----------------------------|------------------------------|
|-----------------------------|------------------------------|
|-------7p6-------------------|------------------6-----7p6---|
|-----------8-----------8p7-5-|-----------8p7------8-7-----8-|
|-0-0-0-------0-0-0-0---------|-0-0-0-0-------10-------------|
|
| PM--|       PM----|           PM----|
| E E E E E E S S S E S E E E   S S S E S E E  E E E E E E E
|-----------------------------|------------------------------|
|-----------------------------|------------------------------|
|-----------------------------|------------------------------|
|-------7p6-------------------|------------------6-----7p6---|
|-----------8-----------8p7-5-|-----------8p7------8-7-----8-|
|-0-0-0-------0-0-0-0---------|-0-0-0-0-------10-------------|


  PM----|           PM----|
  S S S E S  E E  E S S S E S E E E
|--------------------------------------|
|--------------------------------------|
|--------------------------------------|
|-----------10p9--------------7p6------|
|----------------12---------------8----|
|-0-0-0-0-----------0-0-0-0------------|
|
| PM----|           PM----|
| S S S E S  E E  E S S S E S E E E
|--------------------------------------|
|--------------------------------------|
|--------------------------------------|
|------------7p6-----------------------|
|-----------------8-----------8p7-5----|
|-0-0-0-0-----------0-0-0-0------------|


                         F5        N.C.(E)
  PM----|                          PM----|         PM----|
  S S S E S E E  E E E E  Q.       S S S E S E E E S S S E S E E E
|------------------------------||----------------------------------|
|------------------------------||o---------------------------------|
|------------------4-----10----||----------------------------------|
|-----------7p6------7-6-10----||------------7p6-------------------|
|----------------8--------8----||o---------------8-----------8p7-5-|
|-0-0-0-0----------------------||--0-0-0-0---------0-0-0-0---------|
|
| PM----|                          PM----|         PM----|
| S S S E S E E  E E E E  Q.       S S S E S E E E S S S E S E E E
|------------------------------||----------------------------------|
|------------------------------||o---------------------------------|
|------------------------------||----------------------------------|
|------------------6------3----||------------7p6-------------------|
|-----------8p7------8-7--3----||o---------------8-----------8p7-5-|
|-0-0-0-0-------10--------1----||--0-0-0-0---------0-0-0-0---------|


  PM----|
  S S S E S E E  E E E E E E E
|-------------------------------|
|-------------------------------|
|-------------------------------|
|------------------6-----7p6----|
|-----------8p7------8-7-----8--|
|-0-0-0-0-------10--------------|
|
| PM----|
| S S S E S E E  E E E E E E E
|-------------------------------|
|-------------------------------|
|-------------------------------|
|------------------6-----7p6----|
|-----------8p7------8-7-----8--|
|-0-0-0-0-------10--------------|


  PM----|           PM----|
  S S S E S  E E  E S S S E S E E E
|-----------------------------------|
|-----------------------------------|
|-----------------------------------|
|-----------10p9--------------7p6---|
|----------------12---------------8-|
|-0-0-0-0-----------0-0-0-0---------|
|
| PM----|           PM----|
| S S S E S  E E  E S S S E S E E E
|-----------------------------------|
|-----------------------------------|
|-----------------------------------|
|------------7p6--------------------|
|-----------------8-----------8p7-5-|
|-0-0-0-0-----------0-0-0-0---------|


 1.                               2.
                                                  D.S. al Coda
                                                          F5
  PM----|                          PM----|
  S S S E S E E  E E E E E E E     S S S E S E E  E E E E  Q.
|-------------------------------||-------------------------------||
|------------------------------o||-------------------------------||
|------------------4-----5p4----||------------------4-----10-----||
|-----------7p6------7-6-----7--||-----------7p6------7-6-10-----||
|----------------8-------------o||----------------8--------8-----||
|-0-0-0-0-----------------------||-0-0-0-0-----------------------||
|
| PM----|                          PM----|
| S S S E S E E  E E E E E E E     S S S E S E E  E E E E  Q.
|-------------------------------||-------------------------------||
|------------------------------o||-------------------------------||
|-------------------------------||-------------------------------||
|------------------6-----7p6----||------------------6------3-----||
|-----------8p7------8-7-----8-o||-----------8p7------8-7--3-----||
|-0-0-0-0-------10--------------||-0-0-0-0-------10--------1-----||


   Chorus
    &
    E5    G5    A5      Bb5   F5
   4/4
      PM|   PM|   PM--|   PM------------|
    E E E E E E E E   E E E E S S E S S E
||------------------|---------------------|
||o-----------------|---------------------|
||------------------|---------------------|
||--2-----5-----7---|---8-----------------|
||o-2-----5-----7---|---8-----3-3---3-3---|
||--0-0-0-3-0-0-5-0-|-0-6-0-0-1-1-0-1-1-0-|
|
|     PM|   PM|   PM--|   PM------------|
|   E E E E E E E E   E E E E S S E S S E
||------------------|---------------------|
||o-----------------|---------------------|
||------------------|---------------------|
||--2-----5-----7---|---8-----------------|
||o-2-----5-----7---|---8-----3-3---3-3---|
||--0-0-0-3-0-0-5-0-|-0-6-0-0-1-1-0-1-1-0-|


  N.C.
            PM--|
  E E E E E E E E   E E E E E E E E    4x
|-----------------|--------------------||
|-----------------|-------------------o||
|-----------------|--------------------||
|-----------------|--------------------||
|-----------------|-------------------o||
|-0-6-5-3-5-0-3-5-|-6-5-3-5-3-2-3-2----||
|
|           PM--|
| E E E E E E E E   E E E E E E E E    4x
|-----------------|--------------------||
|-----------------|-------------------o||
|-----------------|--------------------||
|-----------------|--------------------||
|-----------------|-------------------o||
|-0-6-5-3-5-0-3-5-|-6-5-3-5-3-2-3-2----||


  N.C.(E)
    PM----|               PM----|
  E E S S S S E E E E   E E S S S S E E E E
|---------------------|---------------------|
|---------------------|---------------------|
|-------------------5-|-4-----------------5-|
|-------------5-4-5---|-------------5-4-5---|
|-7-------------------|---------------------|
|---0-0-0-0-----------|---0-0-0-0-----------|
|
|   PM----|               PM----|
| E E S S S S E E E E   E E S S S S E E E E
|---------------------|---------------------|
|---------------------|---------------------|
|---------------------|---------------------|
|-------------------6-|-5-----------------6-|
|-7-----------7-5-7---|-------------7-5-7---|
|---0-0-0-0-----------|---0-0-0-0-----------|


                                  E5
    PM----|             PM------|
  E E S S S S E E E E   E S S E E Q  Q
|---------------------|-------------------*|
|---------------------|-------------------*|
|-4-----------------5-|-----------9-------*|
|-------------5-4-5---|-----------9-------*|
|---------------------|-----------7-------*|
|---0-0-0-0-----------|-0-0-0-0-0---------*|
|
|   PM----|             PM------|
| E E S S S S E E E E   E S S E E Q  Q
|---------------------|-------------------*|
|---------------------|-------------------*|
|---------------------|-----------9-------*|
|-5-----------------6-|-----------9-------*|
|-------------7-5-7---|-----------7-------*|
|---0-0-0-0-----------|-0-0-0-0-0---------*|



Duration Legend
---------------
W - whole; H - half; Q - quarter; E - 8th; S - 16th; T - 32nd; X - 64th; a - acciaccatura
+ - note tied to previous; . - note dotted; .. - note double dotted
Uncapitalized letters represent notes that are staccato (1/2 duration)
Irregular groupings are notated above the duration line
Duration letters will always appear directly above the note/fret number it represents the
duration for.  Duration letters with no fret number below them represent rests.  Multi-
bar rests are notated in the form Wxn, where n is the number of bars to rest for.  Low
melody durations appear below the staff

Tablature Legend
----------------
 h   - hammer-on
 p   - pull-off
 b   - bend
 pb  - pre-bend
 r   - bend release (if no number after the r, then release immediately)
 /\  - slide into or out of (from/to "nowhere")
 s   - legato slide
 S   - shift slide
 - natural harmonic
[n]  - artificial harmonic
n(n) - tapped harmonic
 ~   - vibrato
 tr  - trill
 T   - tap
 TP  - trem. picking
 PM  - palm muting
\n/  - tremolo bar dip; n = amount to dip
 \n  - tremolo bar down
 n/  - tremolo bar up
/n\  - tremolo bar inverted dip
 =   - hold bend; also acts as connecting device for hammers/pulls
 <> - volume swell (louder/softer)
 x   - on rhythm slash represents muted slash
 o   - on rhythm slash represents single note slash

Misc Legend
-----------
 |  - bar
||  - double bar
||o - repeat start
o|| - repeat end
*|  - double bar (ending)
 :  - bar (freetime)
 $  - Segno
 &  - Coda
Tempo markers -  = BPM(8/16=s8/s16), where s8 = swing 8ths, s16 = swing 16ths

Tap to rate this tab
# A B C D E F G H I J K L M N O P Q R S T U V W X Y Z