Guitaretab - guitar tabs
Song name
# A B C D E F G H I J K L M N O P Q R S T U V W X Y Z

Testament - The Ballad tab

here is the lyric part of the song

Testament- The Ballad

-------------------|-------9-----10------9-------7----------------|
-----------3-------|---7-----7------7------7-------7--------------|
-------0-0---0-0-0-|--7--7-----7------7------7-------7------------|
-----2-------------|-9--------------------------------------------|
-------------------|----------------------------------------------|
--0----------------|----------------------------------------------|
[ Tab from: http://www.guitaretab.com/t/testament/129286.html ]
----------7-----8-----7-----5------|
--------6---6-----6-----6-----6----|
------7-------5-----5-----5-----5--|
----7------------------------------|
--5--------------------------------|
-----------------------------------|

-----------7------5----------8------------3---------------|
------5------5-------------8--------3---------------------|
----5---5------5---------9-------------4------------------|
--7-------------------10---------5------------------------|
----------------------------------------------------------|
----------------------------------------------------------|

there it is the lyric part of "The Ballad"

I'll be back soon for the rest of it!

later
Related for The Ballad tab