Song name
# A B C D E F G H I J K L M N O P Q R S T U V W X Y Z

Testament - Henchmen Ride tab

|----------------------------------------------------------|
|----------------------------------------------------------|
|----------------------------------------------------------|
|-----------------------------------------------------3-7--|
|-------7------8----------5------8---7------8---------3-7--|
|----------000----000000-----000--------000----000000-1-4--|



|----------------------------------------------------------|
|----------------------------------------------------------|
|----------------------------------------------------------|
|-------------------7----6-------------7p6-7---------------|
|--7------8-----------------7------8------8-8-7-8-7-5-7-5--|
|-----000----000000------------000-----------------------8-|



|----------------------------------------------------------|
|----------------------------------------------------------|
|----------------------------------------------------------|
|-----------------------------------------------------3-7--|
|-------7------8----------5------8---7------8---------3-7--|
|----------000----000000-----000--------000----000000-1-4--|



|-------------------------------------|
|-------------------------------------|
|----------00-------------------------|
|-------------------7----6------------|
|--7------8-----------------7------8--|
|-----000----000000------------000----|



|------------------------------------------------------------------------|
|------------------------------------------------------------------------|
|------------------------------------------------------------------------|
|------------------------------------------------------------------------|
|------------------------------------------------------------------------|
|-6---6-5-3-3-5---5-3-2-2-6---6-5-3-3-5---5-3-2-26---6-5-3-3-5---5-3-2-2-|
Tap to rate this tab
# A B C D E F G H I J K L M N O P Q R S T U V W X Y Z