Song name
# A B C D E F G H I J K L M N O P Q R S T U V W X Y Z

Testament - More Than Meets The Eye tab

Hey the name's Alex Skolnick and im here to show how to play my part of the solo in 
Than Meets the Eye' from our new album 'The Formation of Damnation'.  HAHAH oj im not Alex 
yeah i tabbed alex's part of the solo so here goes!! listen to it for timing.

-----------------------------------------------------------------
More Than Meets the Eye - Testament
-----------------------------------------------------------------
Tabbed by:
Email: Charlie-victim@hotmail.com

Tuning:Eb Ab Db Gb Bb eb

b(x)(r): bend up the amount of the number in brackets(release)
p / h: pull offs and hammer ons
*: pinch harmonic
/: slike up \: slike down
~: vibrato
(x): sustained note

I got this off some video (its like 99% right) so yeah just dont complain that eric 
show his bit... Anyone with eric's please upload it!!

eb|-6-3-5-3---6-3-5-3---6-3-5-3---6-3-5-3---5-3---5-3-------------|
Bb|--------5-3-------5-3-------5-3-------5-3---5-3---5-3-5*~------|
Gb|---------------------------------------------------------------|
Db|---------------------------------------------------------------|
Ab|---------------------------------------------------------------|
Eb|---------------------------------------------------------------|
                  (dimished scale)
eb|----------------------------------------------------2-3-5-6p3--|
Bb|-3*~--------------------------------2-4-2-----2-4-5------------|
Gb|----3*~-------------2-3-2-----2-3-5------5-3-5-----------------|
Db|-------2*~-----2-4-5-----5-4-5---------------------------------|
Ab|---------1*~---------------------------------------------------|
Eb|---------------------------------------------------------------|
                  (dimished sweeps)
eb|-5-4-3--3-5-6--6-3---6-3---6-3----9-6----12-9----15-12---------|
Bb|-------5----------5-----5-----5-------8------11-------14-------|
Gb|-------------------3-----3-----3-------6-------9--------12-----|
Db|---------------------------------------------------------------|
Ab|---------------------------------------------------------------|
Eb|---------------------------------------------------------------|

eb|-18-15-----21-18-----22b(24)r-22~~--17b(18)r-(17)--------------|
Bb|------17--------20-------------------------------17~~----------|
Gb|--------15--------18-------------------------------------------|
Db|---------------------------------------------------------------|
Ab|---------------------------------------------------------------|
Eb|---------------------------------------------------------------|
    (weird dimished pattern, but im sure its correct)
eb|-18-----15-----------------------------------------------------|
Bb|---18-15--17---------------------------------------------------|
Gb|------------16--18-15---------------------------12-15p12-14-13-|
Db|--------------18-----15---17-14------------12h14--------(cont.)|
Ab|------------------------17-----14--13*~--13--------------------|
Eb|---------------------------------16----------------------------|

eb|----------------------------------15/17-1717-17/18-1818-18\17--|
Bb|---------------------------------------------------------------|
Gb|-12-----12------------------------12/14-1414-14/15-1515-15\14--|
Db|---14-12--14p12-----12-----------------------------------------|
Ab|---------------13p12--13-12--12*~~-----------------------------|
Eb|---------------------------15----------------------------------|

eb|-1717-17\15----------------------------------------------------|
Bb|---------------------------------------------------------------|
Gb|-1414-14\12-9*~------------------------------------------------|
Db|---------------------------------------------------------------|
Ab|---------------------------------------------------------------|
Eb|---------------------------------------------------------------|

There ya go!! thats alex's solo!!! this is my first tab so im glab it went towards 
that isnt uploaded here yet!!!
Tap to rate this tab
 
# A B C D E F G H I J K L M N O P Q R S T U V W X Y Z