Song name
# A B C D E F G H I J K L M N O P Q R S T U V W X Y Z

Testament - Musical Death A Dirge tab

Tuning: EADGBe

Acoustic Intro:
|-------5---8---7-5-4---4---4---|-------5---8---------------------|
|---5-------------------------5-|---5-----------6-5-------------5-|
|---------------------7---7---5-|-----5-------------7---7---7---5-|
|-7---7---7---------------------|-7-------7-----------6---6-------|
|-0-----------------------------|-0-------------------------------|
|-------------------------------|---------------------------------|


|-------5---8---13-12-10----10----10-13-|-13-10-7--4-5------------|
|---5-----------------------------------|-15-12-9--6-5----5----5--|
|------------------------13----13-------|-16-12-10-7-5----4----5--|
|-7---7---7-----------------------------|------------7----6----7--|
|-0-------------------------------------|-------------------------|
|---------------------------------------|-------------------------|

Skolnick: (0:38)
|-------------------|---5-7--7b8b7r5---------|---5-7--7b8b7r5---17-15-13~-|
|-10-9-10-----------|-5-5------------6-5-----|-5-5------------------------|
|---------7-10--9~~-|--------------------7~~-|----------------------------|
|-------------------|------------------------|----------------------------|
|-------------------|------------------------|----------------------------|
|-------------------|------------------------|----------------------------|

(0:52)
|-13-12-10---------------------------------------------------------------------------10-12----|
|----------13-12-10-9-------------------------------------------------------10-12-13-------10~|
|---------------------10-9------------------------------------------9-10-12-------------------|
|--------------------------12-10-9----------9-10----9-10-12-9-10-12---------------------------|
|----------------------------------12-11-12------12-------------------------------------------|
|---------------------------------------------------------------------------------------------|

|----------12---------------------------|
|-------13------13----------------------|
|----14--------------14-----------------|
|-14----------------------14b15-----r14-|
|---------------------------------------|
|---------------------------------------|

(1:01)
|----------------------12---------------------------12---17----15-12----------|
|-------------------13----13---------------------12------------------15b17r15-|
|----------------14----------14---------------13------------------------------|
|----------10-14----------------14-10------14---------------------------------|
|----11-12----------------------------12--------------------------------------|
|-12--------------------------------------------------------------------------|

|----------------12-15-17-15-13----13-|
|-------------13----------------------|
|----------14-------------------------|
|----10-14----------------------------|
|-12----------------------------------|
|-------------------------------------|

(1:11)
|-13-10------10------------------------------------------------------------------------|
|-------12-9----12-9----12-9-------9---------------------------------------------------|
|--------------------10------10------10--------------------9----10-9-------------------|
|-------------------------------12------12-9----10-9-12-10---12------12-10-9-----------|
|--------------------------------------------12------------------------------12-11-8-7-|
|--------------------------------------------------------------------------------------|

|----------------------|
|----------------------|
|-----------14---15-14-|
|-7~~--12~~------------|
|----------------------|
|----------------------|

Acoustic Riff:(1:16)
|---------0---------------0-------|
|---6-------6---6---6-------6---6-|
|-----7---------------7-----------|
|-0-----0-----0---8-----8-----8---|
|---------------------------------|
|---------------------------------|


Peterson:(1:25)
|-----------------------|----------------------------------------|
|-----------------------|----------------------------------------|
|--7------7--9----7-9-9-|--9---(10)\9--10-----12--10-9-(9)/10-9--|
|--x------x--x----x-x-x-|--x-----x--x--x------x---x--x--x--x--x--|
|--5------5--7----5-7-7-|--7----(8)\7--8--(8)/10--8--7-(7)/8--7--|
|-----------------------|----------------------------------------|

(1:34)
|-----------------------------------------------------|
|-----------------------------<13>--------------------|
|------------------------------------------------12---|
|-12-14-15---14-12-14b15----15----15-14-12-14-15------|
|-----------------------------------------------------|
|-----------------------------------------------------|

 
|-----------------------------------------------------|
|-----------------------------------------------------|
|-14-<14>-14-12----12---------------------------------|
|---------------15----15-14-15-15b17r15-14--12-----12-|
|----------------------------------------------15-----|
|-----------------------------------------------------|

|----------------------------------------|
|----------------------------------------|
|--------------14--15-14-12-14-----------|
|-14b15r14--15------------------12----14-|
|----------------------------------------|
|----------------------------------------|

(1:46)
|-------20b22r20-18--20---22-20-18-20-18----18-------|
|-----x----------------------------------18----18-17-|
|---x------------------------------------------------|
|-x--------------------------------------------------|
|----------------------------------------------------|
|----------------------------------------------------|

|----------------------------------------------------|
|-15-------15-17-18-17-15-17---18-18-17-15-17-18-17--|
|----17b19-------------------------------------------|
|----------------------------------------------------|
|----------------------------------------------------|
|----------------------------------------------------|

|--------------------------------------------------------|-------------------------|
|-17b18-17b18r17--15-17-15-------15-17--17b18---17b18r17-|-------------------------|
|--------------------------17b19-------------------------|-14b15---12--------------|
|--------------------------------------------------------|------------15-14-15-14--|
|--------------------------------------------------------|-------------------------|
|--------------------------------------------------------|-------------------------|
           
|--------------------------------------------|-------------------|
|-------------------10--8--6-----------------|-------------------|
|-7-9-10---9-7-9-10--9--9--7--9-7-9--9b10r9--|--7----------------|
|--------------------------------------------|-------------------|
|--------------------------------------------|-------------------|
|--------------------------------------------|-------------------|

Skolnick [Acoustic] (2:12)
|-----5h8--6-5--------|-------10h13---12---10---|--5--5-------------------------|
|---6-----------6-5-6-|----10-------------------|--6--6b------------------------|
|-7-------------------|-10----------------------|--------7---5------------------|
|---------------------|-------------------------|--------------7p5----3---------|
|---------------------|-------------------------|-----------------------5p3--5--|
|---------------------|-------------------------|-------------------------------|

|------------------5h8-|-----5h8-8-8-8b-5--------------|
|-------6--------6-----|---6---------------6--8--5h6---|
|-----5---7----7-------|-7---------------------------7-|
|-5h7------------------|-------------------------------|
|----------------------|-------------------------------|
|----------------------|-------------------------------|

|-13-13-13-13-12-12-12--13-13-15-15-12-12-----------|
|-----------------------------------------14-14-11--|
|---------------------------------------------------|
|---------------------------------------------------|
|---------------------------------------------------|
|---------------------------------------------------|

|----10-12-13-12-10-12----10-------------10-|
|-10-------------------13----11-------11----|
|----------------------------------10-------|
|-------------------------------------------|
|-------------------------------------------|
|-------------------------------------------|

|-13-12-10---------------------------------------|
|----------13-11-10------------------------------|
|-------------------12-10-9--10-7----5--7p6p5p3--|
|------------------------------------------------|
|------------------------------------------------|
|------------------------------------------------|

|-----------------------------------------------------|
|-----------------------------------------------------|
|-----------------------------------------------(5)/7-|
|----------------------------2-3----0h2h3--5h7--------|
|-(3)/5----3-1-0-1----1-2--------1--------------------|
|-----------------------------------------------------|

Peterson: (2:56) 
|--20b22-----20b22--20b22--20b22--20b22----20b22--20b22--20b22--|
|---------------------------------------------------------------|
|---------------------------------------------------------------|
|---------------------------------------------------------------|
|---------------------------------------------------------------|
|---------------------------------------------------------------|

|-20b22----20b22-20b22-20b22-20b22-22b25----22-20-------------|
|-------------------------------------------------22-21-20-16-|
|-------------------------------------------------------------|
|-------------------------------------------------------------|
|-------------------------------------------------------------|
|-------------------------------------------------------------|

|-----------15-16-17-15-17-15-17-17-------17-17-17-17-17-------17-17-17-|
|-20b22-----------------------------20b22----------------20b22----------|
|-----------------------------------------------------------------------|
|-----------------------------------------------------------------------|
|-----------------------------------------------------------------------|
|-----------------------------------------------------------------------|
  
|-17-17-------17-17-17-17-17-------17--13b15--13-10-------------------------|
|-------20b22----------------20b22------------------13----------------------|
|------------------------------------------------------12b14r12--10---------|
|-------------------------------------------------------------------12------|
|---------------------------------------------------------------------------|
|---------------------------------------------------------------------------|

Skolnick: (3:12)
|----------------------|
|----------------------|
|--------14-15-14------|
|-14--15---------------|
|----------------------|
|----------------------|

|-------------------10-13--12---13--13b15--13-10----|
|----------------10------------------------------13-|
|-------------10------------------------------------|
|----------12---------------------------------------|
|-----8-12------------------------------------------|
|--10-----------------------------------------------|
  
|----------------------13-17-13----13-------10----------|
|-------------------10----------15----15-10----10-------|
|-10-------------10-------------------------------10----|
|-------------12----------------------------------------|
|--------8-12-------------------------------------------|
|-----10------------------------------------------------|

|-------------10-13-17--------------------------|
|----------10----------15-18-17b18r17--15-------|
|-------10--------------------------------17----|
|----12-----------------------------------------|
|-12--------------------------------------------|
|-----------------------------------------------|

|------------------10----------------------------------------------------10-13-12-10----|
|---------------10----10--------------------------10------------------10-------------13-|
|------------10----------10--------------------10------------------10-------------------|
|---------12----------------12--------------12------------------12----------------------|
|----8-12----------------------12-8----8-12----------------8-12-------------------------|
|-10--------------------------------10------------------10------------------------------|

|----13b15-13-12-10-12-10-------10-------------------------------------|-------------|
|-10----------------------13b15----13-10-13-10-------10----------------|-------------|
|----------------------------------------------12b14----12-10-12-10----|-------------|
|-------------------------------------------------------------------12-|--(10)/12~~~~|
|----------------------------------------------------------------------|-------------|
|----------------------------------------------------------------------|-------------|

Acoustic Outro:
|---------0---------------0-------|
|---6-------6---6---6-------6---6-|
|-----7---------------7-----------|
|-0-----0-----0---8-----8-----8---|
|---------------------------------|
|---------------------------------|


Electric Guitar Solo Backing:
|----------------------------|------------------------|----------------------------|
|----------------------------|------------------------|----------------------------|
|-7--------------------------|------------------------|----------------------------|
|-7----------8---------------|-9----------8-----------|-5----------8---------------|
|-5----------8---------------|-9----------8-----------|-5----------8---------------|
|-5---5-5-5--6--6--6-6-6--6--|-7---7-7-7--6--6-6-6--6-|-5---5-5-5--6--6--6-6-6--6--|
PM    . . .     .  . . .  .        . . .     . . .  .       . . .     .  . . .  . 

-----------------|
-----------------|
-----------------|
--9---------10---|
--9---------10---|
--7--7-7-7--8----|
       . . .
Tap to rate this tab
 
# A B C D E F G H I J K L M N O P Q R S T U V W X Y Z