Guitaretab - guitar tabs
Song name
# A B C D E F G H I J K L M N O P Q R S T U V W X Y Z

Testament - More Than Meets The Eye tab

           Testament-More Than Meets The Eye [intro]

tabbed by skilletface.
any questions, send me an e-mail
rock on!

. - palm mute
\ - slide down

Tuning: Drop D


D|-------------------------------------------------------------------|
G|-------------------------------------------------------------------|
C|-------------------------------------------------------------------|
F|-------------------------------------------------------------------|
A|-2---11--10--8---10--11--10-----2---11--10--13---11--10--11--10----|
D|-0---9---8---6---8---9---8------0---9---8---11---9---8---9---8-----|
   .                              .
                            X4 -play this four times-
                    
[ Tab from: http://www.guitaretab.com/t/testament/184739.html ]
D|--------------------------------------------------------------------|
G|--------------------------------------------------------------------|
C|--------------------------------------------------------------------|
F|--------------------------------------------------------------------|
A|--------8-------------------7--------------------4\6--------8-------|
D|-0--0-0---0-0-0--0-0-0--0-0-7--0-0-0--0-0-0--0-0-4\6--0--0-0--0-0-0-|
   .  . .   . . .  . . .  . .    . . .  . . .  . .      .  . .  . . .

D|--------------------------------------------------------------------|
G|--------------------------------------------------------------------|
C|--------------------------------------------------------------------|
F|--------------------------------------------------------------------|
A|------------8-----7-----7-----4\6--------8--------------------------|
D|-0-0-0--0-0---0-0-7-0-0-7-0-0-4\6--0--0-0--0-0-0--0-0-0--0-0--------|
   . . .  . .   . .   . .   . .      .  . .  . . .  . . .  . . 
 

Related for More Than Meets The Eye tab