Song name
# A B C D E F G H I J K L M N O P Q R S T U V W X Y Z

Testament - Trail Of Tears tab

"Trail of Tears" from: Low

I think the timing is off. 
This is the first tab I have submitted, so please rate it. Thank You.

  Intro
   Gtr. 1
Db|-----------------|-----------------|-----------------|-----------------|
Ab|-----------------|-----------------|-----------------|-----------------|
E |---7-----7-----7-|---7-----7-----7-|---6-----6-----6-|---6-----6-----6-|
B |-----5-----5-----|-----5-----5-----|-----5-----5-----|-----5-----5-----|
Gb|-7-----7-----7---|-7-----7-----7---|-7-----7-----7---|-7-----7-----7---|
Db|-----------------|-----------------|-----------------|-----------------|
  |
  |Gtr. 2
eb|-----------------|-----------------|-----------------|-----------------|
Bb|-----------------|-----------------|-----------------|-----------------|
Gb|-----------------|---2b4~----------|-(4)r2~-----(4~)-|------------(4~)-|
Db|-----------------|-----------------|-----------------|-----------------|
Ab|-----------------|-----------------|-----------------|-----------------|
Db|-----------------|-----------------|-----------------|-----------------|

 
  Gtr.1
Db|-----------------|-----------------|-----------------|-----------------|
Ab|-----------------|-----------------|-----------------|-5~---------(5~)-|
E |---7-----7-----7-|---7-----7-----7-|---6-----5-------|-6~---------(6~)-|
B |-----5-----5-----|-----5-----5-----|-----5------4-6--|-5~---------(5~)-|
Gb|-7-----7-----7---|-7-----7-----7---|-7-----7---------|-7~---------(7~)-|
Db|-----------------|-----------------|-----------------|-----------------|
  |
  |Gtr. 2
eb|-----------------|-12~-------------|-7~--------------|-----------------|
Bb|---5~------------|--h-12~----------|-h-7~-------(7~)-|------------(7~)-|
Gb|-5-h-------------|-----h-----------|---h-------------|-----------------|
Db|-h---------------|-----------------|-----------------|-----------------|
Ab|-----------------|-----------------|-----------------|-----------------|
Db|-----------------|-----------------|-----------------|-----------------|


   Gtr.1
Db|-----------------|-----------------|-----------------|-----------------|
Ab|-----------------|-----------------|-----------------|-----------------|
E |---7-----7-----7-|---7-----7-----7-|---6-----6-----6-|---6-----6-----6-|
B |-----5-----5-----|-----5-----5-----|-----5-----5-----|-----5-----5-----|
Gb|-7-----7-----7---|-7-----7-----7---|-7-----7-----7---|-7-----7-----7---|
Db|-----------------|-----------------|-----------------|-----------------|
  |
  |Gtr. 2
eb|-----------------|-----------------|-----------------|-----------------|
Bb|-8~--------------|-7~--------------|-------------7~--|-8--/10~~~\------|
Gb|-----------------|---------9~------|---------9~------|-----------------|
Db|-----------------|-----------------|-----------------|-----------------|
Ab|-----------------|-----------------|-----------------|-----------------|
Db|-----------------|-----------------|-----------------|-----------------|

   Gtr. 1
Db|-----------------|-----------------|-----------------|-----------------|
Ab|-----------------|-----------------|-----------------|-----------------|
E |---7-----7-----7-|---7-----7-----7-|---6-----5-------|--6-------5------|
B |-----5-----5-----|-----5-----5-----|-----5------4-6-4|----5---4---4-6-4|
Gb|-7-----7-----7---|-7-----7-----7---|-7-----7---------|-7----7----------|
Db|-----------------|-----------------|-----------------|-----------------|
  |
  |Gtr. 2
eb|-7-----10-----9--|---7-----9~----7~|-7~--------------|-----------------|
Bb|-----------------|-----------------|------8~---------|-----7---7/10~~~\|
Gb|-----------------|-----------------|---------------9-|-----------------|
Db|-----------------|-----------------|-----------------|-----------------|
Ab|-----------------|-----------------|-----------------|-----------------|
Db|-----------------|-----------------|-----------------|-----------------|


   Gtr. 1
Db|-----------------|-----------------|-----------------|-----------------|
Ab|-----------------|-----------------|-----------------|-----------------|
E |---7-----7-----7-|---7-----7-----7-|---6-----6-----6-|---6-----6-----6-|
B |-----5-----5-----|-----5-----5-----|-----5-----5-----|-----5-----5-----|
Gb|-7-----7-----7---|-7-----7-----7---|-7-----7-----7---|-7-----7-----7---|
Db|-----------------|-----------------|-----------------|-----------------|
  |
  |Gtr. 2
eb|-----------------|-----------------|-----------------|-----------------|
Bb|-----------------|---12-/15--\12---|-10-/12~---12/13-|-12-/15--15~-----|
Gb|--9--/12-\-9~~---|-----------------|-----------------|-----------------|
Db|-----------------|---9~-/12--\9----|-7--/9~----9-/10-|-9--/12--12~-----|
Ab|--7--/10-\-7~~---|-----------------|-----------------|-----------------|
Db|-----------------|-----------------|-----------------|-----------------|

   Gtr. 1
Db|-----------------|-----------------|-----------------|-----------------|
Ab|-----------------|-----------------|-----------------|-5~---------(5~)-|
E |---7-----7-----7-|---7-----7-----7-|---6-----5-------|-6~---------(6~)-|
B |-----5-----5-----|-----5-----5-----|-----5------4-6--|-5~---------(5~)-|
Gb|-7-----7-----7---|-7-----7-----7---|-7-----7---------|-7~---------(7~)-|
Db|-----------------|-----------------|-----------------|-----------------|
  |
  |Gtr. 2
Db|-----------------|-----------------|-----------------|-----------------|
Ab|--17-\15--12-----|--/15--\12-------|-10--/12--12--10-|-\5---/8---/10~--|
E-|-----------------|-----------------|-----------------|-----------------|
B-|--14-\12--9------|--/12--\9--------|-7---/9---9---7--|-\2---/5---/7~~--|
Gb|-----------------|-----------------|-----------------|-----------------|
Db|-----------------|-----------------|-----------------|-----------------|
Tap to rate this tab
# A B C D E F G H I J K L M N O P Q R S T U V W X Y Z