Guitaretab - guitar tabs
Song name
# A B C D E F G H I J K L M N O P Q R S T U V W X Y Z

Testament - The Persecuted Wont Forget tab

-------------------------------------------------------------------------------
                  The Persecuted Wonít Forget - Testament
-------------------------------------------------------------------------------
Tabbed by: Mickey McFlarin
Email: jonathanmichael5150@hotmail.com

Tuning: Ĺ Step Down

I couldnít find a tab for Testaments extremely underplayed amazing song so I
made this. It sounds pretty right, I donít know how Eric plays it live like
if the note is on the right string, but I made it pretty easy so here it
is. On the intro try to play with the side of your pick to make that 
harmonic-like sound he gets when playing it. Sorry if itís confusing and if
some parts are wrong, I know they are, but itís my first tab. 


INTRO:
  Guitar 1
e|--------------------------------------------------------|
B|--------------------------------------------------------|
G|--------------------------------------------------------|
D|---------------8p7p0------------------------------------|
A|-----7p5p0-----------8p7p0-----7p5p0---8p7p0-8p7p0------|
E|-0-0-------0-0-------------0-0-------0------------------|
  Guitar 2                                               []
e|--------------------------------------------------------|
B|--------------------------------------------------------|
G|--------------------------------------------------------|
D|-2------------------------------------------------------|
A|-2------------------------------------------------------|
E|-0------------------------------------------------------|
 
 
  Guitar 1
e|--------------------------------------------------------|
B|--------------------------------------------------------|
G|--------------------------------------------------------|
D|---------------8p7p0-------------------8p7h8p7----------|
A|-----7p5p0-----------8p7p0-----7p5p0-----------10p7-----|
E|-0-0-------0-0-------------0-0-------0------------------|
  Guitar 2                                               []
e|--------------------------------------------------------|
B|--------------------------------------------------------|
G|--------------------------------------------------------|
D|--------------------------------------------------------|
A|--------------------------------------------------------|
E|--------------------------------------------------------|


  Guitar 1
e|--------------------------------------------------------|
B|--------------------------------------------------------|
G|--------------------------------------------------------|
D|---------------8p7p0------------------------------------|
A|-----7p5p0-----------8p7p0-----7p5p0---8p7p0-8p7p0------|
E|-0-0-------0-0-------------0-0-------0------------------|
  Guitar 2                                               []
e|--------------------------------------------------------|
B|--------------------------------------------------------|
G|--------------------------------------------------------|
D|-2---2---------2-----2----------------------------------|
A|-2---2---------2-----2----------------------------------|
E|-0---0---------0-----0----------------------------------|


  
Guitar 1
e|--------------------------------------------------------|
B|--------------------------------------------------------|
G|--------------------------------------------------------|
D|---------------8p7p0-------------------8p7h8p7----------|
A|-----7p5p0-----------8p7p0-----7p5p0-----------10p7-----|
E|-0-0-------0-0-------------0-0-------0------------------|
  Guitar 2                                               []
e|--------------------------------------------------------|
B|--------------------------------------------------------|
G|--------------------------------------------------------|
D|-2---2---------2-----2----------------------------------|
A|-2---2---------2-----2----------------------------------|
E|-0---0---------0-----0----------------------------------|
  Guitar 3 (Mixed In Part)                               []
e|--------------------------------------------------------|
B|--------------------------------------------------------|
G|--------------------------------------------------------|
D|--------------------------------------------------------|
A|---------------------7*~~~~~~~~~~~~~~~~-----------------|
E|---------------------------------------12\--------------|


  Guitar 1&2 PLAY X4
e|--------------------------------------------------------|
B|--------------------------------------------------------|
G|--------------------------------------------------------|
D|---------------8p7p0------------------------------------|
A|-----7p5p0-----------8p7p0-----7p5p0---8p7p0-8p7p0------|
E|-0-0-------0-0-------------0-0-------0------------------|

e|--------------------------------------------------------|
B|--------------------------------------------------------|
G|--------------------------------------------------------|
D|---------------8p7p0-------------------8p7h8p7----------|
A|-----7p5p0-----------8p7p0-----7p5p0-----------10p7-----|
E|-0-0-------0-0-------------0-0-------0------------------|

[ Tab from: http://www.guitaretab.com/t/testament/192849.html ]
VERSE 1:
  Guitar 1&2 PLAY X2
e|---------------------------------------------------------------------------|
B|---------------------------------------------------------------------------|
G|---------------------------------------------------------------------------|
D|-0h2-------5---7-----------------0h2-------5---7---------5-----5/7---------|
A|-0h2-------5---7-----------------0h2-------5---7---------5-----5/7---------|
E|-0---0-0-0-3-0-5-0-0-0-0-0-0-0-0-0---0-0-0-3-0-5-0-0-0-0-3-0-0-3/5---------|

e|---------------------------------------------------------------------------|
B|---------------------------------------------------------------------------|
G|---------------------------------------------------------------------------|
D|-0h2-------5---7-------------------0h2-----5---7---------8\7---5/7---------|
A|-0h2-------5---7-------------------0h2-----5---7---------8\7---5/7---------|
E|-0---0-0-0-3-0-5-0-0-0000-0-0-0000-0---0-0-3-0-5-0-0-0-0-6\5-0-3/5---------|








BREAK:
  Guitar 1&2 PLAY X2
e|--------------------------------------------------------|
B|--------------------------------------------------------|
G|--------------------------------------------------------|
D|---------------8p7p0------------------------------------|
A|-----7p5p0-----------8p7p0-----7p5p0---8p7p0-8p7p0------|
E|-0-0-------0-0-------------0-0-------0------------------|

e|--------------------------------------------------------|
B|--------------------------------------------------------|
G|--------------------------------------------------------|
D|---------------8p7p0-------------------8p7h8p7----------|
A|-----7p5p0-----------8p7p0-----7p5p0-----------10p7-----|
E|-0-0-------0-0-------------0-0-------0------------------|


VERSE 2:
  Guitar 1&2 PLAY X2
e|---------------------------------------------------------------------------|
B|---------------------------------------------------------------------------|
G|---------------------------------------------------------------------------|
D|-0h2-------5---7-----------------0h2-------5---7---------5-----5/7---------|
A|-0h2-------5---7-----------------0h2-------5---7---------5-----5/7---------|
E|-0---0-0-0-3-0-5-0-0-0-0-0-0-0-0-0---0-0-0-3-0-5-0-0-0-0-3-0-0-3/5---------|

e|---------------------------------------------------------------------------|
B|---------------------------------------------------------------------------|
G|---------------------------------------------------------------------------|
D|-0h2-------5---7-------------------0h2-----5---7---------8\7---5/7---------|
A|-0h2-------5---7-------------------0h2-----5---7---------8\7---5/7---------|
E|-0---0-0-0-3-0-5-0-0-0000-0-0-0000-0---0-0-3-0-5-0-0-0-0-6\5-0-3/5---------|


CHORUS:
  Guitar 1&2 PLAY X2
e|---------------------------------------------------------------------------|
B|---------------------------------------------------------------------------|
G|---------------------------------------------------------------------------|
D|-------6---5---5-5/6----9---8---8-8/9----8-7---7/8---5/7---4/5-------------|
A|-------7---6---6-6/7---10---9ó--9-9/10---8-7---7/8---5/7---4/5-------------|
E|-0-0-0---0---0-------0----0---0--------0-6-5-0-5/6-0-3/5-0-2/3-------------|

e|---------------------------------------------------------------------------|
B|---------------------------------------------------------------------------|
G|---------------------------------------------------------------------------|
D|-------6---5---5-5/6----9---8---8-8/9----8-7--------7------5\4-------------|
A|-------7---6---6-6/7---10---9---9-9/10---8-7--------7------5\4-------------|
E|-0-0-0---0---0-------0----0---0--------0-6-5-0-6666-5-5555-3\2-------------|

AFTER CHORUS?:
  Guitar 1&2
e|---------------------------------------------------------------------------|
B|---------------------------------------------------------------------------|
G|---------------------------------------------------------------------------|
D|-------6-----5-----6~--------9----8------9~-------6-----5-----6~-----------|
A|-------7-----6-----7~/10101010101099999910~-------7-----6-----7~-----------|
E|-0-0-0---0-0---0-0--------------------------0-0-0---0-0---0-0--------------|





e|-----------------------------|
B|-----------------------------|
G|-----------------------------| -----PLAY THIS PART FIRST TIME ONLY
D|-------8\7/8-------8\7/8-----| 
A|-------8\7/8-------8\7/8-----|
E|-0-0-0-6\5/6-0-0-0-6\5/6-----|




e|---------------------------------------------------------------------------|
B|---------------------------------------------------------------------------|
G|---------------------------------------------------------------------------|
D|---------------------------------------------------------------------------|
A|---------------------------------------------------------------------------|
E|---------------------------------------------------------------------------|

Iím sorry I canít finish, Iíve been up for hours trying to tab this out and
Iíve only got the first two minutes done... Iíll have it finished before 
the end of the week but I figured a lot of people only wanted the intro and 
the verse so I posted this until I finish it. See ya later. Iím tired as 
hell.

| /  slide up
| \  slide down
| h  hammer-on
| p  pull-off
| ~  vibrato
| +  harmonic
| x  Mute note
| *  Pinch Harmonic
===============================================================================

Related for The Persecuted Wont Forget tab