Song name
# A B C D E F G H I J K L M N O P Q R S T U V W X Y Z

Testament - Return To Serenity tab

Tune Down

F#||------------------|------------------|------------------|------------------|
C#||------------------|------------------|------------------|------------------|
G#||------------------|------------------|------------------|------------------|
D#||------------------|------------------|------------------|------------------|



--------------------------------------|--------------------------------------|
--------------------------------------|--------------------------------------|
--7--7--7--7--7--7--7--7--7--7--7--7--|--------------------------------------|
--------------------------------------|--0--0--0--0--0--0--0--0--0--0--0--0--|



--------------------------------------|--------------------------------------|
--------------------------------------|--------------------------------------|
--3--3--3--3--3--3--3--3--3--3--3--3--|--4--4--4--4--4--4--4--4--4--4--4--4--|
--------------------------------------|--------------------------------------|



----------------------------4--------|--------------------------------------|
-------------------------5-----5-----|--------------------------------------|
--3--3--3--3--3--3--3-------------7--|--------------------------------------|
-------------------------------------|--0--0--0--0--0--0--0--0--0--0--0--0--|



--------------------------------------|--------------------------------------|
--------------------------------------|--------------------------------------|
--3--3--3--3--3--3--3--3--3--3--3--3--|--4--4--4--4--4--4--4--4--4--4--4--4--|
--------------------------------------|--------------------------------------|



----------------------------4--------|--------------------------|
-------------------------5-----5-----|--------------------------|
--3--3--3--3--3--3--3-------------7--|--------------------------|
-------------------------------------|--------------------------|



--------------------------|--------------------------------------|
--------------------------|--------------------------------------|
--------------------------|--------2--------2--------2--------2--|
--------------------------|--0--0-----0--0-----3--3-----3--3-----|



---------------------------------|--------------------------------------|
--------7--------7--2------------|--------------------------------------|
--5--5-----5--5------------------|--------2--------2--------2--------2--|
---------------------------------|--0--0-----0--0-----3--3-----3--3-----|



---------------------------------|--------------------------------------|
--------7--------7--2------------|--------------------------------------|
--5--5-----5--5------------------|--------2--------2--------2--------2--|
---------------------------------|--0--0-----0--0-----3--3-----3--3-----|



---------------------------------|--------------------------------------|
--------7--------7--2------------|--------------------------------------|
--5--5-----5--5------------------|--------2--------2--------2--------2--|
---------------------------------|--0--0-----0--0-----3--3-----3--3-----|



---------------------------------|--------------------------------------|
--------7--------7--2------------|--------------------------------------|
--5--5-----5--5------------------|--------2--------2--------2--------2--|
---------------------------------|--0--0-----0--0-----3--3-----3--3-----|



---------------------------------|--------------------------------------|
--------7--------7--2------------|--------------------------------------|
--5--5-----5--5------------------|--------2--------2--------2--------2--|
---------------------------------|--0--0-----0--0-----3--3-----3--3-----|



---------------------------------|--------------------------------------|
--------7--------7--2------------|--------------------------------------|
--5--5-----5--5------------------|--------2--------2--------2--------2--|
---------------------------------|--0--0-----0--0-----3--3-----3--3-----|



---------------------------------|--------------------------------------|
--------7--------7--2------------|--------------------------------------|
--5--5-----5--5------------------|--------2--------2--------2--------2--|
---------------------------------|--0--0-----0--0-----3--3-----3--3-----|



---------------------------------|----------|---------------------------|------|
--------7--------7--2------------|----------|---------------------------|------|
--5--5-----5--5------------------|----------|------------------3/-------|------|
---------------------------------|----------|---------------------------|------|



----------|-------------------------------|----------|
----------|-------------------------------|----------|
----------|--------------3--3-3-3-3-------|----------|
----------|-------------------------------|----------|



--------------------------------------|---------------------------------|
--------------------------------------|--------7--------7--2------------|
--------2--------2--------2--------2--|--5--5-----5--5------------------|
--0--0-----0--0-----3--3-----3--3-----|---------------------------------|



--------------------------------------|---------------------------------|
--------------------------------------|--------7--------7--2------------|
--------2--------2--------2--------2--|--5--5-----5--5------------------|
--0--0-----0--0-----3--3-----3--3-----|---------------------------------|



--------------------------------------|---------------------------------|
--------------------------------------|--------7--------7--2------------|
--------2--------2--------2--------2--|--5--5-----5--5------------------|
--0--0-----0--0-----3--3-----3--3-----|---------------------------------|



--------------------------------------|---------------------------------|
--------------------------------------|--------7--------7--2------------|
--------2--------2--------2--------2--|--5--5-----5--5------------------|
--0--0-----0--0-----3--3-----3--3-----|---------------------------------|



--------------|--------------|----------|--------------------------------|
--------------|--------------|----------|--------------------------------|
--------------|--------------|----------|--------------3--3-3-3-3--------|
--------------|--------------|----------|--------------------------------|



----------|----------|----------|----------|------|----------|----------|
----------|----------|----------|----------|------|----------|----------|
----------|----------|----------|----------|------|----------|----------|
----------|----------|----------|----------|------|----------|----------|




--------------------------------------|--------------------------------------|
--------------------------------------|--------------------------------------|
--7--7--7--7--7--7--7--7--7--7--7--7--|--------------------------------------|
--------------------------------------|--0--0--0--0--0--0--0--0--0--0--0--0--|



--------------------------------------|--------------------------------------|
--------------------------------------|--------------------------------------|
--3--3--3--3--3--3--3--3--3--3--3--3--|--4--4--4--4--4--4--4--4--4--4--4--4--|
--------------------------------------|--------------------------------------|



----------------------------4--------|--------------------------------------|
-------------------------5-----5-----|--------------------------------------|
--3--3--3--3--3--3--3-------------7--|--------------------------------------|
-------------------------------------|--0--0--0--0--0--0--0--0--0--0--0--0--|



--------------------------------------|--------------------------------------|
--------------------------------------|--------------------------------------|
--3--3--3--3--3--3--3--3--3--3--3--3--|--4--4--4--4--4--4--4--4--4--4--4--4--|
--------------------------------------|--------------------------------------|



----------------------------4--------|--------------------------------------|
-------------------------5-----5-----|--------------------------------------|
--3--3--3--3--3--3--3-------------7--|--------------------------------------|
-------------------------------------|--0--0--0--0--0--0--0--0--0--0--0--0--|



--------------------------------------|--------------------------------------|
--------------------------------------|--------------------------------------|
--3--3--3--3--3--3--3--3--3--3--3--3--|--4--4--4--4--4--4--4--4--4--4--4--4--|
--------------------------------------|--------------------------------------|



----------------------------4--------|--------------------------------------|
-------------------------5-----5-----|--------------------------------------|
--3--3--3--3--3--3--3-------------7--|--------------------------------------|
-------------------------------------|--0--0--0--0--0--0--0--0--0--0--0--0--|



--------------------------------------|--------------------------------------|
--------------------------------------|--------------------------------------|
--3--3--3--3--3--3--3--3--3--3--3--3--|--4--4--4--4--4--4--4--4--4--4--4--4--|
--------------------------------------|--------------------------------------|



----------------------------4--------|--------------------------------------|
-------------------------5-----5-----|--------------------------------------|
--3--3--3--3--3--3--3-------------7--|--------------------------------------|
-------------------------------------|--0--0--0--0--0--0--0--0--0--0--0--0--|



--------------------------------------|--------------------------------------|
--------------------------------------|--------------------------------------|
--3--3--3--3--3--3--3--3--3--3--3--3--|--4--4--4--4--4--4--4--4--4--4--4--4--|
--------------------------------------|--------------------------------------|



----------------------------4--------|----------|----------|
-------------------------5-----5-----|----------|----------|
--3--3--3--3--3--3--3-------------7--|----------|----------|
-------------------------------------|----------|----------|



--------------------------------------|---------------------------------|
--------------------------------------|--------7--------7--2------------|
--------2--------2--------2--------2--|--5--5-----5--5------------------|
--0--0-----0--0-----3--3-----3--3-----|---------------------------------|



--------------------------------------|---------------------------------|
--------------------------------------|--------7--------7--2------------|
--------2--------2--------2--------2--|--5--5-----5--5------------------|
--0--0-----0--0-----3--3-----3--3-----|---------------------------------|



--------------------------------------|---------------------------------|
--------------------------------------|--------7--------7--2------------|
--------2--------2--------2--------2--|--5--5-----5--5------------------|
--0--0-----0--0-----3--3-----3--3-----|---------------------------------|



----------------------------------|----------|----------|
----------------------------------|----------|----------|
--7--7--7--7--7--7--7--7----------|----------|----------|
----------------------------------|----------|----------|



--------------------------------|----------|----------|----------|----------|
--------------------------------|----------|----------|----------|----------|
--------------3--3-3-3-3--------|----------|----------|----------|----------|
--------------------------------|----------|----------|----------|----------|

tabbed by Taz Mckell
Tap to rate this tab
# A B C D E F G H I J K L M N O P Q R S T U V W X Y Z