Testament - First Strike Is Deadly tab

FIRST STRIKE IS DEADLY 2001 VERSION


      E  E   E   E    H             E  E   E   E  H          
D||-----------------------------|---------------------------|
A||-----------------------------|---------------------------|
F||------9--11--12--<>9~--------|------9--11--12--9~--------|
C||--12-------------------------|--12-----------------------|
G||-----------------------------|---------------------------|
D||-----------------------------|---------------------------|


                          |--|                                  
   E  E   E   E   Q.      S  E      E   E   E   E    H          
--------------------------------|------------------------------|
-----------------10b------L-----|--10--------------------------|
------9--11--12-------------12--|------12--11--12--<>9~--------|
--12----------------------------|------------------------------|
--------------------------------|------------------------------|
--------------------------------|------------------------------|


  Q    E  E      E  E  E   E     E  E  E  E    H          
--------------xg10--9--8------|--7-----------------------|
--------------------------11--|-----8-----8--------------|
--L---------------------------|--------9-----<>9~--------|
------------------------------|--------------------------|
------------------------------|--------------------------|
------------------------------|--------------------------|


  E   E  E   E  E   E  E  E        H.             S  S  S  S  
------------------------------|------------------------------|
------------------------------|------------------------13-17-|
---------7h--9----------------|---------------------14-------|
--7s--9---------9s--7--5------|------------------14----------|
--------------------------7S--|--<>9~------------------------|
------------------------------|------------------------------|


   S  S  S  S  S  S  S  S  S  S  S  S  S  S  S  S  
--------------------------------------------------|
--13-15-13-13-12----------------------------------|
-----------------14-12----------------------------|
-----------------------15-14-12-------------------|
--------------------------------15-15-14-12-14-15-|
--------------------------------------------------|


   S  S  S  S  E   S  S  Q         E   E     E   E   E   E   E   E   E   E   
------------------------------------------|-------------------------12------|
------------------13-17-15~-----xg12--13--|--L------------------13------13--|
-----------12-14--------------------------|-----------------14--------------|
--12-14-15--------------------------------|-------------14------------------|
------------------------------------------|-----12--15----------------------|
------------------------------------------|---------------------------------|


     |-3-|                      
  E  S S S  E  E  E  E  E   E   
---------7-10--9--8--7--8------|
-------8-------------------10--|
-----9-------------------------|
-------------------------------|
-------------------------------|
-------------------------------|


   |---3---|   |---3--|   |---3---|   |---3--|   
   E   E   E   E   E  E   E   E   E   E   E  E   
--10p--8--10p--8p--7-----10p--8--10p--8p--7-----|
----------------------8----------------------8--|
------------------------------------------------|
------------------------------------------------|
------------------------------------------------|
------------------------------------------------|


   |---3---|   |---3--|   |----3---|    |----3---|   
   E   E   E   E   E  E   E    E   E    E    E   E   
--10p--8--10p--8p--7-----13p--12--13p--12p--10------|
----------------------8-------------------------12--|
----------------------------------------------------|
----------------------------------------------------|
----------------------------------------------------|
----------------------------------------------------|


   |----3---|    |----3---|    |----3---|    |----3---|    
   E    E   E    E    E   E    E    E   E    E    E   E    
--16p--15--16p--15p--13-----------------------------------|
-------------------------15p--13p--12---------------------|
---------------------------------------15p--13p--12-------|
-----------------------------------------------------15p--|
----------------------------------------------------------|
----------------------------------------------------------|


   W                     E    E   E   E   E   E   E   E   
---------------------|-----------------------12----------|
---------------------|-------------------13------13------|
---------------------|---------------14--------------14--|
--14~----------------|-----------14----------------------|
---------------------|--12h--15--------------------------|
---------------------|-----------------------------------|


  E    E   E   E   E  E   E   E      E    E   E   E   E   E   E   E   
----------------------8----------|-----------------------10----------|
------------------10-----10------|-------------------12------12------|
--------------10-------------10--|---------------12--------------12--|
----------10---------------------|-----------12----------------------|
--8h--12-------------------------|--10h--14--------------------------|
---------------------------------|-----------------------------------|


   E    E   E   E   E   E   E   E      E    E   E   E   E   E    E   E   
-----------------------15----------|-------------------17--20p--17------|
-------------------17------17------|---------------18---------------18--|
---------------17--------------17--|-----------17-----------------------|
-----------17----------------------|--15h--19---------------------------|
--15h--19--------------------------|------------------------------------|
-----------------------------------|------------------------------------|


   E    E   E   E   E   E   E   E      E   E   E   E   E   E   E   E   
-----------------------13----------|----------16--19----------12--16--|
-------------------15------15------|------17--------------12----------|
---------------15--------------15--|--16--------------13--------------|
-----------15----------------------|----------------------------------|
--13h--17--------------------------|----------------------------------|
-----------------------------------|----------------------------------|


   E   E   E   E   E   E   E   E      H.             E   E   
----------------------------------|-------------------------|
----------12--17--15--13----------|-------------------------|
------13------------------14--16--|--17~------------16--14--|
--14------------------------------|-------------------------|
----------------------------------|-------------------------|
----------------------------------|-------------------------|


   H.             E   E      H.             E   E      H.             E   E   
-------------------------|-------------------------|-------------------------|
-------------------------|-------------------------|-------------------------|
-----------------12--14--|--16~------------14--12--|-----------------10--12--|
--15~--------------------|-------------------------|--14~--------------------|
-------------------------|-------------------------|-------------------------|
-------------------------|-------------------------|-------------------------|


   H.             E   E      H.            E   E   
-------------------------|------------------------|
-------------------------|------------------------|
--14~------------12--10--|-----------------9--10--|
-------------------------|--12~-------------------|
-------------------------|------------------------|
-------------------------|------------------------|


  S   S  S   S  S   S  S   S S   S  S   S  S   S  S   S   
---------------------------------------------------------|
-----------------------------9h-10p-9h-10p-9h-10p-9h-10h-|
--9h-10p-9h-10p-9h-10p-9h-10-----------------------------|
---------------------------------------------------------|
---------------------------------------------------------|
---------------------------------------------------------|


   S   S   S   S   S   S   S   S   S   S   S   S  E   E   
-------------------------------------------------17--19--|
--12h-13p-12h-13p-12h-13p-12h-13p-12h-13p-12h-13---------|
---------------------------------------------------------|
---------------------------------------------------------|
---------------------------------------------------------|
---------------------------------------------------------|


   H.             E   E      H.             E   E      H.             E   E   
--20~------------19--17--|-----------------15--17--|--19~------------17--15--|
-------------------------|--18~--------------------|-------------------------|
-------------------------|-------------------------|-------------------------|
-------------------------|-------------------------|-------------------------|
-------------------------|-------------------------|-------------------------|
-------------------------|-------------------------|-------------------------|


   H.             E   E      H.             E   E      H.             E   E   
-----------------13--15--|--17~------------15--13--|-----------------12--13--|
--17~--------------------|-------------------------|--15~--------------------|
-------------------------|-------------------------|-------------------------|
-------------------------|-------------------------|-------------------------|
-------------------------|-------------------------|-------------------------|
-------------------------|-------------------------|-------------------------|


   S   S   S   S   S   S   S   S  S   S   S   S   S   S   S   S  
--12h-13p-12h-13p-12h-13p-12h-13-16h-17p-16h-17p-16h-17p-16h-17-|
----------------------------------------------------------------|
----------------------------------------------------------------|
----------------------------------------------------------------|
----------------------------------------------------------------|
----------------------------------------------------------------|


   S   S   S   S   S   S   S   S   S   S   S   S  E   E   
--19h-20p-19h-20p-19h-20p-19h-20p-19h-20p-19h-20---------|
---------------------------------------------------------|
-------------------------------------------------14--16--|
---------------------------------------------------------|
---------------------------------------------------------|
---------------------------------------------------------|


   H.             E   E      H.             E   E      H.             E   E   
-------------------------|-------------------------|-------------------------|
-------------------------|-------------------------|-------------------------|
--17~------------16--14--|-----------------12--14--|--16~------------14--12--|
-------------------------|--15~--------------------|-------------------------|
-------------------------|-------------------------|-------------------------|
-------------------------|-------------------------|-------------------------|


   H.             E   E      H.             E   E      H.            E   E   
-------------------------|-------------------------|------------------------|
-------------------------|-------------------------|------------------------|
-----------------10--12--|--14~------------12--10--|-----------------9--10--|
--14~--------------------|-------------------------|--12~-------------------|
-------------------------|-------------------------|------------------------|
-------------------------|-------------------------|------------------------|


  S   S  S   S  S   S  S   S S   S  S   S  S   S  S   S   
---------------------------------------------------------|
-----------------------------9h-10p-9h-10p-9h-10p-9h-10h-|
--9h-10p-9h-10p-9h-10p-9h-10-----------------------------|
---------------------------------------------------------|
---------------------------------------------------------|
---------------------------------------------------------|


   S   S   S   S   S   S   S   S   S   S   S   S   S   S   S   S   
-----------------------------------------------------------------||
--12h-13p-12h-13p-12h-13p-12h-13p-12h-13p-12h-13p-12h-13p-12h-13-||
-----------------------------------------------------------------||
-----------------------------------------------------------------||
-----------------------------------------------------------------||
-----------------------------------------------------------------||


Duration Legend
---------------
W - whole
H - half
Q - quarter
E - 8th
S - 16th
T - 32nd
X - 64th
. - note dotted
|-n-|  - n-tuplets


Tablature Legend
----------------
L - tied note
x - dead note
NH - natural harmonic
AH - artificial harmonic
TH - tapped harmonic
SH - semi harmonic
PH - pitch harmonic
h - hammer on
p - pull off
b - bend
br - bendRelease
pb - preBend
pbr - preBendRelease
brb - bendReleaseBend
S - shift slide
s - legato slide
~ - vibrato
Tap to rate this tab
 
# A B C D E F G H I J K L M N O P Q R S T U V W X Y Z