Song name
# A B C D E F G H I J K L M N O P Q R S T U V W X Y Z

Testament - The Persecuted Wont Forget tab

the persecuted wont forget:  tabbed by trtr6842

p = pull off
h = hammer on
s = squalie/ pinch harmonic
~ = vibrato
/ = slide
m = mute
b = bend (ex. 6b7, bend 6 half step, 6b8, bend 6 whole step)


lower tuning 1/2 step
   
   riff#1
   left guitar
    m m m m     m m m m   m m     m m m m     m m m m     m m
Eb|---------------------------------------------------------------|
Bb|---------------------------------------------------------------|
Gb|---------------------------------------------------------------|
db|--------------------8p7----------------------------------------|
Ab|---------7p5---------------8p7---------7p5---------8p7-----8p7-|
Eb|-0-0-0-0-----0-0-0-0---0-0-----0-0-0-0-----0-0-0-0-----0-0-----|
    
    m m m m     m m m m   m m     m m m       m m m m
  |-------------------------------------------------------------|
  |-------------------------------------------------------------|
  |-------------------------------------------------------------|
  |--------------------8p7---------------------------8p7-8p7----|
  |---------7p5---------------8p7---------7p5---------------8p7-|
  |-0-0-0-0-----0-0-0-0---0-0-----0-0-0-0-----0-0-0-0-----------|


   right guitar
  |---|-----------------------------|--------------------------------|
  |---|-----------------------------|--------------------------------|
  |---|-----------------------------|-right guitar then same as left-|
  |-2-|-2-2---2-2-------2-2---2-----|--------------------------------|
  |-2-|-2-2---2-2-------2-2---2-2s~~|--------------------------------|
  |-0-|-0-0---0-0-------0-0---0-----|--------------------------------|



   riff# 2
        m m m m   m   m m m m m m m m     m m m m     m m m m   m     
  |-----------------------------------------------------------------|
  |-----------------------------------------------------------------|
  |-----------------------------------------------------------------|
  |-0-2-------5---7-----------------0-2-------5---7---------5---5-7-|
  |-0-2-------5---7-----------------0-2-------5---7---------5---5-7-|
  |-0-0-0-0-0-3-0-5-0-0-0-0-0-0-0-0-0-0-0-0-0-3-0-5-0-0-0-0-3-0-3/5-|


        m m m m   m   m m mmmm m m m m   m m m   m   m   m     m 
  |------------------------------------------------------------------|
  |------------------------------------------------------------------|
  |------------------------------------------------------------------|
  |-0-2-------5---7------------------0-2-------5---7---7---8/7---5/7-|
  |-0-2-------5---7------------------0-2-------5---7---7---8/7---5/7-|
  |-0-0-0-0-0-3-0-5-0-0-0000-0-0-0-0-0-0-0-0-0-3-0-5-0-5-0-6/5-0-3/5-|



   riff# 3
    mm m m   m   m       m    m   m        m   m   m       m     m
  |--------------------------------------------------------------------|
  |--------------------------------------------------------------------|
  |--------------------------------------------------------------------|
  |--------6---5---5-5/6---9----8---8-8/9------------------------------|
  |--------7---6---6-6/7---10---9---9-9/10---5---4---4-4/5---2-4---1-2-|
  |-00-0-0---0---0-------0----0---0--------0-6-0-5-0-5-5/6-0-3-5-0-2-3-|


    m m m   m   m       m    m   m        m   m     m m m m   m m m m 
  |---------------------------------------------------------------------|
  |---------------------------------------------------------------------|
  |---------------------------------------------------------------------|
  |-------6---5---5-5/6---9----8---8-8/9--------------------------------|
  |-------7---6---6-6/7---10---9---9-9/10---5---4-4---------4---------2-|
  |-0-0-0---0---0-------0----0---0--------0-6-0-5-5-0-0-0-0-5-0-0-0-0-3-|



   riff #4
    m mmm   m m   m m       m m m m m    m m m m m    m m m m 
  |---------------------------------------------------------------|
  |---------------------------------------------------------------|
  |---------------------------------------------------------------|
  |-------6-----5-----5/6-6-----------9------------8-----------8~~|
  |-------7-----6-----6/7-7-----------10-----------9-----------9~~|
  |-0-000---0-0---0-0-------0-0-0-0-0----0-0-0-0-0---0-0-0-0-0----|

                                     ending 1            ending 2
    m mmm   m m   m m         m mmm       m mmm
  |-------------------------|-------------------------|------------|
  |-------------------------|-------------------------|------------|
  |-------------------------|-------------------------|------------|
  |-------6-----5-----5/6-6-|-------------------------|------------|
  |-------7-----6-----6/7-7-|-------5\4/5-------5\4\2-|--------5-7-|
  |-0-000---0-0---0-0-------|-0-000-6\5/6-0-000-6\5\3-|-0-3-5-7----|


    left guitar riff# 5
                                                     mm
  |----------------------------------------------------------------------------------------|
  |-5-4------------------------------------------------4b5-4~------------------------------|
  |----7-6-5-4----------------------------------------------5-4----------------------------|
  |-----------6b7-6---------77777------------------------------7b8-7---------77777---------|
  |----------------8-7-55555-----88888-77777-8-7-5-7----------------8-7-55555-----88888-7s~|
  |--------------------------------------------------00------------------------------------|



    right guitar riff# 5
                                                                         m m
  |-------------------------------------------------------------------------------|
  |-8-7---------------------------------------------------------------------7b8-7~|
  |----10-9-8-7-------------------------------------------------------------------|
  |------------9b10~9-6b7-6~---------10-10-10-10-10-7-7-7-7-7-6-7-----------------|
  |-------------------------7-7-7-7-7----------------------------10-8-10-0-0------|
  |-------------------------------------------------------------------------------|



  |----------------------------------------------------------|
  |---------8------------------------------------------------|
  |-8-7-9-10-9-----------------------------------------------|
  |----------------------10-10-10-10-10-7-7-7-7-7-6-7--------|
  |------------7-7-7-7-7-----------------------------10-8-10-|
  |----------------------------------------------------------|



   left guitar riff# 6                                  
    mmm mm mm  m mmm mm mm m
  |--------------------------------------------------|
  |--------------------------------------------------|
  |----9--8------------------------------------------|
  |----------10-9---7--6------------7----------------|
  |-----------------------8-7----5-----8-7---8-7-5-7-|
  |-000-00-00--0-000-00-00-0--000-00-00-0-000--------|

    ending one
  |----------------------------------------------------------|
  |----------------------------------------------------------|
  |-8b9-8~---------------------------------------------------| x2
  |-------10-9-7b8-7~---------77777--------------------------|
  |------------------8-7-55555-----88888-7~-8-7-5-7~-8-7-5-7~|
  |----------------------------------------------------------|

    ending two
  |--------------------|--------------|
  |--------------------|--------------|
  |-same as first plus-|--------------|
  |--------------------|-7-7-7-7-7~~~~|
  |--------------------|--------------|
  |--------------------|--------------|


 
  right guitar riff# 6
    mmm mm mm   m   mmm   mm   mm   m    mmm mm  mm m mmm
  |---------------------------------------------------------------|
  |---------------------------------------------------------------|
  |---------------------------------------------------------------|
  |--------------------------------------------10--7-6---7--------|
  |----7--6---------------------------------7-------------10-8-10-|
  |-000-00-00-8-0-7-000-5-00-4-00-1-0-0--000-00--00-0-000---------|

    
    ending one
  |--------------------------------------------------------------------------|
  |--------------------------------------------------------------------------|
  |-11b12-11-8-7-------------------------------------------------------------|
  |-------------9b10-9---------------10-10-10-10-10-7-7-7-7-7-------7--------|
  |-------------------11-10-8-8-8-8-8------------------------10-8-10-10-8-10~|
  |--------------------------------------------------------------------------|


    ending two
  |-------------------------------------------------------------------------------------|
  |------------------8------------------------------------------------------------------|
  |-11b12-11-8-7-9-10-9-----------------------------------------------------------------|
  |-----------------------------10-10-10-10-10-7-7-7-7-7-------7------------------------|
  |--------------------8-8-8-8-8------------------------10-8-10-10-8-10~-10-10-10-10-10~|
  |-------------------------------------------------------------------------------------|


    riff# 7
    mmm            mmm   mmmmm       mmm   m mmm mmm       mmm   mmm
  |----------------------------------------------------------------------------|
  |----------------------------------------------------------------------------|
  |----------------------------------------------------------------------------| x2
  |----------------------------------------------------------------------------|
  |----10-10-10-999---999-----999-888---888---------888-777---777---------5----|
  |-000------------000---00000-------000---0-000-000-------000---000-0-2-3-3-2-|



    left guitar riff# 8

  |-----------------|
  |-same as riff #7-|
  |-----------------|
  |-----------------|
  |-----------------|
  |-----------------|

    right guitar riff #8
    mmm       mmm   mmmmm            mmm        mmmmm                  mmm        mmm
  |---------------------------------------------------------------------------------------------|
  |---------------------------------------------------------------------------------------------|
  |---------------------------------------------------------------------------------------------|
  |---------------------------------------------------------------------------------------------|
  |----777-999---999-----999-10-10-10---10-10-10------12-12-12-13-13-13---13-13-13---------5----|
  |-000-------000---00000------------000--------000000-----------------000--------000-0-2-3-3-2-|



    lead guitar presolo thing

  |---------------------------------------------------------------------------------------------|
  |----------------------------7s-6-------------------------------------------------------------|
  |------6-6-7-6-6---------6-7-----6-7-6--------7-9-7-9-7--7-9-10-9-7-12-10-9-14-12-11-17-15-14-|
  |-6-7-9-9-----9-9-7-6-7-9---9---------9-7-9-10---------10-9-----------------------------------|
  |---------------------------------------------------------------------------------------------|
  |---------------------------------------------------------------------------------------------|


  |----------------------------------------------------------------|
  |----------------------------------------------------------------|
  |------6-6-7-6-6---11-9--9----------------------7----------------|
  |-6-7-9-9-----9-9-7----12-12-11-12-11-9--9---7h9-6-4-6-7-7/9-7-7~|
  |--------------------------------------12-11---------------------|
  |----------------------------------------------------------------|



    riff# 9                                           _____________    NOT actual timing,
    m m m       m m m       m m m        m  m  m     /             \ <-just to show number
  |------------------------------------------------------------------| of times to play
  |------------------------------------------------------------------| more easily
  |------------------------------------------------------------------|
  |-------4-7-2-------4-7-9-------4-7-2-----------4--444-444-444-444-|
  |-------4-7-2-------4-7-9-------4-7-2-----------4--444-444-444-444-|
  |-2-2-2-2-5-0-2-2-2-2-5-7-2-2-2-2-5-0--2--2--2--2--222-222-222-222-|


    2nd guitar during solo (i'll call it riff# 10)            
      m m      m m      m m
  |-------------------------------------------------------------------|
  |-------------------------------------------------------------------|
  |-------------------------------------------------------------------|x2
  |-4--------4--------5---------------4--------4--------5----5-2----2-|
  |-4----4-4-4----4-4-5----5-5-2-2-2--4----4-4-4----4-4-5----5-2----2-|
  |-2-2-2-2--2-2-2-2--3-3-3-3-0-0-0---2-2-2-2--2-2-2-2--3-3-3--0-0-0--|

   riff# 11 (during solo still) then goes back to riff#10, then 
  |---------------------------------------|for the end of solo 
  |---------------------------------------|just play open Eb chord)
  |---------------------------------------|
  |-7---2-3---6---7-7-7-7---333333-666666-|
  |-7---2-3---6---7-7-7-7---333333-666666-|
  |-5---0-1---4---5-5-5-5---111111-444444-|


    ending  (you'll have to take parts from the intro too)
  |---------------------------------------------------------|
  |---------------------------------------------------------|
  |---------------------------------------------------------|
  |-------------------------------------------------------2-|
  |-------------------------------------------------------2-|
  |-5-6-0-3-5-0-2-3-0-5-6-0-3-5-0-2-3-0-5-6-0-3-5-0-2-3-0-0-|
 

   m m m m     m m m m   m m     m m m m     m m m m     m m
  |---------------------------------------------------------------|
  |---------------------------------------------------------------|
  |---------------------------------------------------------------|
  |--------------------8p7----------------------------------------|
  |---------7p5---------------8p7---------7p5---------8p7-----8p7-|
  |-0-0-0-0-----0-0-0-0---0-0-----0-0-0-0-----0-0-0-0-----0-0-----|
    
    m m m m     m m m m   m m     m m m       m m m m
  |---------------------------------------------------------------|
  |---------------------------------------------------------------|
  |-------------------------------------------------------------9\|
  |--------------------8p7---------------------------8p7-8p7----9\|
  |---------7p5---------------8p7---------7p5---------------8p7-7\|
  |-0-0-0-0-----0-0-0-0---0-0-----0-0-0-0-----0-0-0-0-------------|


well there ya have it
my second tab ever ;)
Tap to rate this tab
# A B C D E F G H I J K L M N O P Q R S T U V W X Y Z