Guitaretab - guitar tabs
Song name
# A B C D E F G H I J K L M N O P Q R S T U V W X Y Z

Testament - Sin Of Omission tab

T e s t A m e n t 's "Sin of ommision"

from practice what you preach

by fatal [fatal@esoterica.pt]


intro (clean sound)
Repeat a few times
|-----------------------------------------------------|
|-----------------------------------------------------|
|-----------------------------------------------------|
|-1^0-0-0-0-0-0-0-1^0-0-0-0-0-0-0-1^0-0-1^0-0-1^0-----|
|-----------------------------------------------------|
|-----------------------------------------------------|

then go into
|-----------------------------------------------------|
|-----------------------------------------------------|
|-----------------------------------------------------|
|-----------------------------------------------------|
|-0-0-0-0-0-0-12^0-0-10^0-0-8^0-0-0^7-----------------|
|-----------------------------------------------------|

those this two riffs one at time, changing back and forth
then intro stops with:
[ Tab from: http://www.guitaretab.com/t/testament/44692.html ]
(full distortion)
|-----------------------------------------------------|
|-----------------------------------------------------|
|-----------------------------------------------------|
|-7-5---5---------------------------------------------|
|----8-7-8-7-5-8-7-5--7-5----5-----7~~---7------------|
|--------------------8---8-7---8-7-5~~---5------------|
                                         .
                                                      1.)  2.)     3.)
|--------------------------------------------------|------------|-------------------------------|
|--------------------------------------------------|------------|-------------------------------|
|--------------------------------------------------|------------|-------------------------------|
|--------------------------------------------------|-5-4-2------|-5-4-2-------------------------|
|-5\4-------------5\2-------------5\2---5\2---5\4--|-3-2-0-5\4--|-3-2-0-5\4---------------5~~-5\|
|-3\2-2-2-2-2-2-2-3\2-2-2-2-2-2-2-3\2-2-3\2-2-3\2--|-------3\2--|-------3\2-2-2-2-2-2-2-2-3~~-3\|
                                                                                               

(warm distortion+lots of reverb)     1.) 3.)        2.) 4.)
|-----------------------------------|-------------|-------------|
|-----------------------------------|-------------|-------------|
|-----------------------------------|-------------|-------------|
|-----------------------------------|-------------|-5-------4~~-|
|-x/\-------2-------4-------5-------|-4-------2-2-|-------------|
|-x/\-2-2-2---2-2-2---2-2-2---2-2-2-|---2-2-2-----|--2-2-2------|


Thats it,
Probably its all here (minus the solo)

pretty god damn cool song, if you ask me.



fatal,
Related for Sin Of Omission tab
Advertisement will be closed in 10 seconds