Song name
# A B C D E F G H I J K L M N O P Q R S T U V W X Y Z

Testament - So Many Lies tab

Standard Tuning

G||---------------------------|----------------------------------|
D||---------------------------|----------------2-2-3-2-0---------|
A||---------2-2-3-2-0-------2-|--2-3-2-0-----------------1-0-----|
E||-------------------3-2-1---|----------3-2-1---------------3-0-|



----------------------------|-------------------------------|
----------------------------|-------------------------------|
----------------------------|-------------2-2-3-2-0---------|
----0-0-0-0---0-0-0-0--0-1--|----0-0-0-0------------3-2-1-0-|



----------------------------|--------------------------|
----------------------------|--------------------------|
----------------------------|--------------0--2--3-----|
----0-0-0-0---0-0-0-0--0-1--|----0-0-0-0------------1--|



----------------------------|-------------------------------|
----------------------------|-------------------------------|
----------------------------|-------------2-2-3-2-0---------|
----0-0-0-0---0-0-0-0--0-1--|----0-0-0-0------------3-2-1-0-|



----------------------------|-------------------------|
----------------------------|-------------------------|
----------------------------|--------------0--2--3----|
----0-0-0-0---0-0-0-0--0-1--|----0-0-0-0--------------|



------------------------------|-----------------------------|
------------------------------|-----------------------------|
------------------------------|--------------------------1--|
--0--0-0-0-0---0-0-0-0-0-0-1--|----0-0-0-0---0-0-0-0-0-0----|



-----------------------------|-------------------------------|
-----------------------------|-------------------------------|
--------------------------3--|-------------2-2-3-2-0---------|
----0-0-0-0---0-0-0-0-0-0----|----0-0-0-0------------3-2-1-0-|



------------------------------|-----------------------------|
------------------------------|-----------------------------|
------------------------------|--------------------------1--|
--0--0-0-0-0---0-0-0-0-0-0-1--|----0-0-0-0---0-0-0-0-0-0----|



-----------------------------|--------------------------|
-----------------------------|--------------------------|
--------------------------3--|--------------0--2--3-----|
----0-0-0-0---0-0-0-0-0-0----|----0-0-0-0------------1--|



---------------------------|-----------------------------|
---------------------------|-----------------------------|
---------------------------|--------------------------1--|
----0--0----0-0-0-0-0-0-1--|----0-0-0-0---0-0-0-0-0-0----|



-----------------------------|------------------------------|
-----------------------------|------------------------------|
--------------------------3--|--------------2-3-2-0---------|
----0-0-0-0---0-0-0-0-0-0----|----0-0-0-0-----------3-2-1-0-|



-----------------------------|-----------------------------|
-----------------------------|-----------------------------|
-----------------------------|--------------------------1--|
----0-0-0-0---0-0-0-0-0-0-1--|----0-0-0-0---0-0-0-0-0-0----|



------------------------------|--------------------|
------------------------------|--------------------|
------------------------------|--5--------3--------|
----0-0-0-0---0-0-0-0-0-0-0-0-|--------------------|



-----------------------------|-----------------------------|
-----------------------------|-----------------------------|
-----------------------------|----0---------------------1--|
----0-0-0-0---0-0-0-0-0-0-1--|------0-0-0---0-0-0-0-0-0----|



-----------------------------|------------------------------|
-----------------------------|------------------------------|
--------------------------3--|--------------2-3-2-0---------|
----0-0-0-0---0-0-0-0-0-0----|----0-0-0-0-----------3-2-1-0-|



-----------------------------|-----------------------------|
-----------------------------|-----------------------------|
-----------------------------|--------------------------1--|
----0-0-0-0---0-0-0-0-0-0-1--|----0-0-0-0---0-0-0-0-0-0----|



-----------------------------|-------------------------|
-----------------------------|-------------------------|
--------------------------3--|--------------0--2--3----|
----0-0-0-0---0-0-0-0-0-0----|----0-0-0-0--------------|



---------------------------|----------------------------|
---------------------------|----------------------------|
---------------------------|--1--1--1--1--1--1-1-1------|
--0--0--0--0--0--0--0-0--0-|------------------------3-3-|



----------------------------|---------------------------|
----------------------------|---------------------------|
----------------------------|--1--1--1------------------|
--0--0--0--0--0--0--0-0-0-0-|------------1-1--1--1--0-0-|



----------------------------|----------------------------|
----------------------------|----------------------------|
----------------------------|--1--1--1--1--1--1-1-1------|
--0--0--0--0--0--0--0-0-0-0-|------------------------3-3-|



----------------------------|---------------------------|
----------------------------|---------------------------|
----------------------------|--1--1--1------------------|
--0--0--0--0--0--0--0-0-0-0-|------------1-1--1--1--0-0-|



------------------------------|-----------------------------|
------------------------------|-----------------------------|
------------------------------|--------------------------1--|
--0--0-0-0-0---0-0-0-0-0-0-1--|----0-0-0-0---0-0-0-0-0-0----|



-----------------------------|-------------------------------|
-----------------------------|-------------------------------|
--------------------------3--|-------------2-2-3-2-0---------|
----0-0-0-0---0-0-0-0-0-0----|----0-0-0-0------------3-2-1-0-|



------------------------------|-----------------------------|
------------------------------|-----------------------------|
------------------------------|--------------------------1--|
--0--0-0-0-0---0-0-0-0-0-0-1--|----0-0-0-0---0-0-0-0-0-0----|



-----------------------------|-----------------------|
-----------------------------|-----------------------|
--------------------------3--|-----------------------|
----0-0-0-0---0-0-0-0-0-0----|----0-0-0-0---0--------|



------------------------------|-----------------------------|
------------------------------|-----------------------------|
------------------------------|--------------------------1--|
--0--0-0-0-0---0-0-0-0-0-0-1--|----0-0-0-0---0-0-0-0-0-0----|



-----------------------------|------------------------------|
-----------------------------|------------------------------|
--------------------------3--|--------------2-3-2-0---------|
----0-0-0-0---0-0-0-0-0-0----|----0-0-0-0-----------3-2-1-0-|



-----------------------------|-----------------------------|
-----------------------------|-----------------------------|
-----------------------------|--------------------------1--|
----0-0-0-0---0-0-0-0-0-0-1--|----0-0-0-0---0-0-0-0-0-0----|



------------------------------|--------------------|
------------------------------|--------------------|
------------------------------|--5--------3--------|
----0-0-0-0---0-0-0-0-0-0-0-0-|--------------------|



-----------------------------|-----------------------------|
-----------------------------|-----------------------------|
-----------------------------|----0---------------------1--|
----0-0-0-0---0-0-0-0-0-0-1--|------0-0-0---0-0-0-0-0-0----|



-----------------------------|------------------------------|
-----------------------------|------------------------------|
--------------------------3--|--------------2-3-2-0---------|
----0-0-0-0---0-0-0-0-0-0----|----0-0-0-0-----------3-2-1-0-|



-----------------------------|-----------------------------|
-----------------------------|-----------------------------|
-----------------------------|--------------------------1--|
----0-0-0-0---0-0-0-0-0-0-1--|----0-0-0-0---0-0-0-0-0-0----|



-----------------------------|-------------------------|
-----------------------------|-------------------------|
--------------------------3--|--------------0--2--3----|
----0-0-0-0---0-0-0-0-0-0----|----0-0-0-0--------------|



---------------------------|----------------------------|
---------------------------|----------------------------|
---------------------------|--1--1--1--1--1--1-1-1------|
--0--0--0--0--0--0--0-0--0-|------------------------3-3-|



----------------------------|---------------------------|
----------------------------|---------------------------|
----------------------------|--1--1--1------------------|
--0--0--0--0--0--0--0-0-0-0-|------------1-1--1--1--0-0-|



----------------------------|----------------------------|
----------------------------|----------------------------|
----------------------------|--1--1--1--1--1--1-1-1------|
--0--0--0--0--0--0--0-0-0-0-|------------------------3-3-|



----------------------------|---------------------------|
----------------------------|---------------------------|
----------------------------|--1--1--1------------------|
--0--0--0--0--0--0--0-0-0-0-|------------1-1--1--1--0-0-|



------------------------------|-----------------------------|
------------------------------|-----------------------------|
------------------------------|--------------------------1--|
--0--0-0-0-0---0-0-0-0-0-0-1--|----0-0-0-0---0-0-0-0-0-0----|



-----------------------------|-------------------------------|
-----------------------------|-------------------------------|
--------------------------3--|-------------2-2-3-2-0---------|
----0-0-0-0---0-0-0-0-0-0----|----0-0-0-0------------3-2-1-0-|



------------------------------|-----------------------------|
------------------------------|-----------------------------|
------------------------------|--------------------------1--|
--0--0-0-0-0---0-0-0-0-0-0-1--|----0-0-0-0---0-0-0-0-0-0----|



-----------------------------|-----------------------|
-----------------------------|-----------------------|
--------------------------3--|-----------------------|
----0-0-0-0---0-0-0-0-0-0----|----0-0-0-0---0--------|



------------------------------|-----------------------------|
------------------------------|-----------------------------|
------------------------------|--------------------------1--|
--0--0-0-0-0---0-0-0-0-0-0-1--|----0-0-0-0---0-0-0-0-0-0----|



-----------------------------|-------------------------------|
-----------------------------|-------------------------------|
--------------------------3--|-------------2-2-3-2-0---------|
----0-0-0-0---0-0-0-0-0-0----|----0-0-0-0------------3-2-1-0-|



------------------------------|-----------------------------|
------------------------------|-----------------------------|
------------------------------|--------------------------1--|
--0--0-0-0-0---0-0-0-0-0-0-1--|----0-0-0-0---0-0-0-0-0-0----|



-----------------------------|--------------------------|
-----------------------------|--------------------------|
--------------------------3--|--------------0--2--3-----|
----0-0-0-0---0-0-0-0-0-0----|----0-0-0-0------------1--|



---------------------------|----------------------------|
---------------------------|----------------------------|
---------------------------|--1--1--1--1--1--1-1-1------|
--0--0--0--0--0--0--0-0--0-|------------------------3-3-|



----------------------------|---------------------------|
----------------------------|---------------------------|
----------------------------|--1--1--1------------------|
--0--0--0--0--0--0--0-0-0-0-|------------1-1--1--1--0-0-|



----------------------------|----------------------------|
----------------------------|----------------------------|
----------------------------|--1--1--1--1--1--1-1-1------|
--0--0--0--0--0--0--0-0-0-0-|------------------------3-3-|



----------------------------|---------------------------|
----------------------------|---------------------------|
----------------------------|--1--1--1------------------|
--0--0--0--0--0--0--0-0-0-0-|------------1-1--1--1--0-0-|



------------------------------|-----------------------------|
------------------------------|-----------------------------|
------------------------------|--------------------------1--|
--0--0-0-0-0---0-0-0-0-0-0-1--|----0-0-0-0---0-0-0-0-0-0----|



-----------------------------|-------------------------------|
-----------------------------|-------------------------------|
--------------------------3--|-------------2-2-3-2-0---------|
----0-0-0-0---0-0-0-0-0-0----|----0-0-0-0------------3-2-1-0-|



------------------------------|-----------------------------|
------------------------------|-----------------------------|
------------------------------|--------------------------1--|
--0--0-0-0-0---0-0-0-0-0-0-1--|----0-0-0-0---0-0-0-0-0-0----|



-----------------------------|-----------------------|
-----------------------------|-----------------------|
--------------------------3--|-----------------------|
----0-0-0-0---0-0-0-0-0-0----|----0-0-0-0---0--------|



------------------------------|-----------------------------|
------------------------------|-----------------------------|
------------------------------|--------------------------1--|
--0--0-0-0-0---0-0-0-0-0-0-1--|----0-0-0-0---0-0-0-0-0-0----|



-----------------------------|------------------------------|
-----------------------------|------------------------------|
--------------------------3--|--------------2-3-2-0---------|
----0-0-0-0---0-0-0-0-0-0----|----0-0-0-0-----------3-2-1-0-|



-----------------------------|-----------------------------|
-----------------------------|-----------------------------|
-----------------------------|--------------------------1--|
----0-0-0-0---0-0-0-0-0-0-1--|----0-0-0-0---0-0-0-0-0-0----|



------------------------------|--------------------|
------------------------------|--------------------|
------------------------------|--5--------3--------|
----0-0-0-0---0-0-0-0-0-0-0-0-|--------------------|



-----------------------------|-----------------------------|
-----------------------------|-----------------------------|
-----------------------------|----0---------------------1--|
----0-0-0-0---0-0-0-0-0-0-1--|------0-0-0---0-0-0-0-0-0----|



-----------------------------|------------------------------|
-----------------------------|------------------------------|
--------------------------3--|--------------2-3-2-0---------|
----0-0-0-0---0-0-0-0-0-0----|----0-0-0-0-----------3-2-1-0-|



-----------------------------|-----------------------------|
-----------------------------|-----------------------------|
-----------------------------|--------------------------1--|
----0-0-0-0---0-0-0-0-0-0-1--|----0-0-0-0---0-0-0-0-0-0----|



-----------------------------|-------------------------|
-----------------------------|-------------------------|
--------------------------3--|--------------0--2--3----|
----0-0-0-0---0-0-0-0-0-0----|----0-0-0-0--------------|



---------------------------|----------------------------|
---------------------------|----------------------------|
---------------------------|--1--1--1--1--1--1-1-1------|
--0--0--0--0--0--0--0-0--0-|------------------------3-3-|



----------------------------|---------------------------|
----------------------------|---------------------------|
----------------------------|--1--1--1------------------|
--0--0--0--0--0--0--0-0-0-0-|------------1-1--1--1--0-0-|



----------------------------|----------------------------|
----------------------------|----------------------------|
----------------------------|--1--1--1--1--1--1-1-1------|
--0--0--0--0--0--0--0-0-0-0-|------------------------3-3-|



----------------------------|---------------------------|
----------------------------|---------------------------|
----------------------------|--1--1--1------------------|
--0--0--0--0--0--0--0-0-0-0-|------------1-1--1--1--0-0-|



---------------------------|----------------------------|
---------------------------|----------------------------|
---------------------------|--1--1--1--1--1--1-1-1------|
--0--0--0--0--0--0--0-0--0-|------------------------3-3-|



----------------------------|---------------------------|
----------------------------|---------------------------|
----------------------------|--1--1--1------------------|
--0--0--0--0--0--0--0-0-0-0-|------------1-1--1--1--0-0-|



----------------------------|----------------------------|
----------------------------|----------------------------|
----------------------------|--1--1--1--1--1--1-1-1------|
--0--0--0--0--0--0--0-0-0-0-|------------------------3-3-|



----------------------------|---------------------------|
----------------------------|---------------------------|
----------------------------|--1--1--1------------------|
--0--0--0--0--0--0--0-0-0-0-|------------1-1--1--1--0-0-|



------------------------------|-----------------------------|
------------------------------|-----------------------------|
------------------------------|--------------------------1--|
--0--0-0-0-0---0-0-0-0-0-0-1--|----0-0-0-0---0-0-0-0-0-0----|



-----------------------------|-------------------------------|
-----------------------------|-------------------------------|
--------------------------3--|-------------2-2-3-2-0---------|
----0-0-0-0---0-0-0-0-0-0----|----0-0-0-0------------3-2-1-0-|



------------------------------|-----------------------------|
------------------------------|-----------------------------|
------------------------------|--------------------------1--|
--0--0-0-0-0---0-0-0-0-0-0-1--|----0-0-0-0---0-0-0-0-0-0----|



-----------------------------|-------------------------------|
-----------------------------|-------------2-3-2-1-0---------|
--------------------------3--|-----------------------3-2-1---|
----0-0-0-0---0-0-0-0-0-0----|----0-0-0-0------------------0-|



----------------------------|-------------------------------|
----------------------------|-------------------------------|
----------------------------|-------------2-2-3-2-0---------|
----0-0-0-0---0-0-0-0--0-1--|----0-0-0-0------------3-2-1-0-|



----------------------------|--------------------------||
----------------------------|--------------------------||
----------------------------|--------------------------||
----0-0-0-0---0-0-0-0--0-1--|----0-0-0-0---0-0-0-0-----||

tabbed by Taz Mckell
Tap to rate this tab
 
# A B C D E F G H I J K L M N O P Q R S T U V W X Y Z