Song name
# A B C D E F G H I J K L M N O P Q R S T U V W X Y Z

Testament - Seven Days Of May tab

#----------------------------------PLEASE NOTE---------------------------------#
#This file is the author's own work and represents their interpretation of the #
#song. You may only use this file for private study, scholarship, or research. #
#------------------------------------------------------------------------------#

SEVEN DAYS OF MAY
As recorded by Testament
(From the 1989 Album SOULS OF BLACK)

Transcribed by unregistered
	

Words by Skolnick, Billy Music by Peterson, Skolnick

Gtr I (E A D G B E) - 'Alex Skolnick'
Gtr II (E A D G B E) - 'Eric Peterson'

 Intro
  Fast Q=156
      Ab5                        D5      Fb5
 4/4
  Gtrs I, II
    PM     PM       PM   PM----|           PM------------|
  E E Q  E E Q    E E Q  E S S E E   +E  E E E S S E E S S
|---------------|------------------|-----------------------|
|---------------|------------------|-----------------------|
|---------------|------------------|-----------------------|
|---------------|----------------7-|-(7)-9-----------------|
|-5---6--5---6--|-5---6----------5-|-(5)-7-----------------|
|---0-4----0-4--|---0-4--4-4-4-4---|-------0-0-0-0-0-0-0-0-|


                          F#G5
  Gtrs I, II
  PM------------------|       PM|               PM----|
  E E S S E S S E S S E   E E E E E E E E   +E  E E E E E E E
|-----------------------|-----------------|--------------------|
|-----------------------|-----------------|--------------------|
|-----------------------|-----------------|--------------------|
|-----------------------|---------------2-|-(2)-3-2-0-2-0------|
|-----------------------|-4s5-----7-0---2-|-(2)-3-2-0-2-0---5--|
|-0-0-0-0-0-0-0-0-0-0-0-|-2s3-0-0---------|---------------0----|


  Gtrs I, II
        PM------------------------------------|
  +E  E E E S S E E S S   E E S S E S S E S S E
|-----------------------|-----------------------|
|-----------------------|-----------------------|
|-----------------------|-----------------------|
|-----------------------|-----------------------|
|-(5)-7-----------------|-----------------------|
|-------0-0-0-0-0-0-0-0-|-0-0-0-0-0-0-0-0-0-0-0-|


  F#G5
      PM|
                               |-3-|
  E E E E E E E E   +E   E E E Q q q
|-----------------|------------------|
|-----------------|------------------|
|---------------9-|-(9)s10s9s7s9-----|
|-----------------|------------------|
|-4s5-----7-0---7-|-(7)s=8s7s5s7-8-7-|
|-2s3-0-0---------|--------------6-5-|


  G5       F5G5  F5                                  Ab      G
  Gtrs I, II
       PM--------|                       PM--------|           PM------------|
                           |-3-|
  Q.   E E E S S E   Q  Q  Q Q Q   S S E E E S S E E E   +E  E E E S S E S S E
|------------------|-------------|---------------------|-----------------------|
|------------------|-------------|---------------------|-----------------------|
|------------------|-------------|-------------------5-|-(5)s4-----------------|
|------------------|-------6-5-3-|-----2-------------6-|-(6)s5-----------------|
|-5----5-5-3-5-5-3-|-3--3--------|---------------------|-----------------------|
|-3----3-3-1-3-3-1-|-1--1--4-3-1-|-3p0---0-0-0-0-0-0---|-------0-0-0-0-0-0-0-0-|


  F#G5                          BbA5  G5       F5G5  F5
  Gtrs I, II
      PM|                       PM|        PM--------|
                              |-3-|                            |-3-|
  E E E E E Q  E   +E   E E E Q Q Q   Q.   E E E S S E   Q  Q  Q Q Q
|----------------|------------------|------------------|--------------|
|----------------|------------------|------------------|--------------|
|-----------9--9-|-(9)-10s9s7s9-----|------------------|--------------|
|----------------|------------------|------------------|-------6-5-3--|
|-4s5-----7-7--7-|-(7)--8s7s5s7-8-7-|-5----5-5-3-5-5-3-|-3--3---------|
|-2s3-0-0--------|--------------6-5-|-3----3-3-1-3-3-1-|-1--1--4-3-1--|


   Verse
    Fb5
    Gtr I
          PM----|
    E E E E E E E E   E E E E E E S S E
||------------------|-------------------|
||o-----------------|-------------------|
||------------------|-------------------|
||--9---8---------9-|---8---8-7h8-7h8p7-|
||o-7---7-7-7-7-7-7-|---7---7-----------|
||------------------|-------------------|
|
|   Gtr II
|         PM----|
|   E E E E E E E E   E E E E E E S S E
||------------------|-------------------|
||o-----------------|-------------------|
||------------------|-------------------|
||--9---8---------9-|---8---8-7h8-7h8p7-|
||o-7---7-7-7-7-7-7-|---7---7-----------|
||------------------|-------------------|


    PM
  E E E E  E  E E E   E E E E E E S S E
|-------------------|--------------------|
|-------------------|--------------------|
|-------------------|--------------------|
|-9---8---11-10-9-9-|---8---8-7h8-7h8p7--|
|-7-7-7-----------7-|---7---7------------|
|-------------------|--------------------|
|
|   PM
| E E E E  E  E E E   E E E E E E S S E
|-------------------|--------------------|
|-------------------|--------------------|
|-------------------|--------------------|
|-9---8----8--7-6-9-|---8---8-7h8-7h8p7--|
|-7-7-7-----------7-|---7---7------------|
|-------------------|--------------------|


  Db5
  Gtrs I, II
        PM----|                           PM                        PM
  E E E E E E E E   E E E E E E S S E   E E E E E E E E   E E E E E E Q
|-----------------|-------------------|-----------------|------------------||
|-----------------|-------------------|-----------------|-----------------o||
|-----------------|-------------------|-----------------|------------------||
|-6---5---------6-|---5---5-4h5-4h5-4-|-6---5---8-7-6-6-|---5---5----------||
|-4---4-4-4-4-4-4-|---4---4-----------|-4-4-4---------4-|---4---4-5---6---o||
|-----------------|-------------------|-----------------|-----------0-4----||


 Chorus
                 D5      Fb5           Ab      G
  Gtrs I, II
  PM|                      PM--------|           PM------------|
  E E Q  E S S E E   +E  E E E S S E E E   +E  E E E S S E S S E
|------------------|---------------------|-----------------------|
|------------------|---------------------|-----------------------|
|------------------|-------------------5-|-(5)s4-----------------|
|----------------7-|-(7)-9-------------6-|-(6)s5-----------------|
|-5---6----------5-|-(5)-7---------------|-----------------------|
|---0-4--4-4-4-4---|-------0-0-0-0-0-0---|-------0-0-0-0-0-0-0-0-|


  F#G5
  Gtrs I, II
      PM|               PM----|
  E E E E E E E E   +E  E E E E E E E
|-----------------|-------------------|
|-----------------|-------------------|
|-----------------|-------------------|
|---------------2-|-(2)-3-2-0-2-0-----|
|-4s5-----7-0---2-|-(2)-3-2-0-2-0---5-|
|-2s3-0-0---------|---------------0---|


                    Ab      G
                              PM------------|
  +E  E E E S S E E E   +E  E E E S S E S S E
|---------------------|------------------------|
|---------------------|------------------------|
|-------------------5-|-(5)s4------------------|
|-----2-------------6-|-(6)s5------------------|
|-(5)-2---------------|------------------------|
|-------0-0-0-0-0-0---|-------0-0-0-0-0-0-0-0--|


  F#G5                          BbA5  G5   G5  F5G5  F5
  Gtrs I, II
      PM|                       PM|        PM--------|
                              |-3-|                            |-3-|
  E E E E E Q  E   +E   E E E Q Q Q   Q.   E E E S S E   Q  Q  Q Q Q
|----------------|------------------|------------------|--------------|
|----------------|------------------|------------------|--------------|
|-----------9--9-|-(9)-10s9s7s9-----|------------------|--------------|
|----------------|------------------|------------------|-------6-5-3--|
|-4s5-----7-7--7-|-(7)--8s7s5s7-8-7-|-5----5-5-3-5-5-3-|-3--3---------|
|-2s3-0-0--------|--------------6-5-|-3----3-3-1-3-3-1-|-1--1--4-3-1--|


   Verse
    $
    Fb5
    Gtr I
          PM----|
    E E E E E E E E   E E E E E E S S E
||------------------|-------------------|
||o-----------------|-------------------|
||------------------|-------------------|
||--9---8---------9-|---8---8-7h8-7h8p7-|
||o-7---7-7-7-7-7-7-|---7---7-----------|
||------------------|-------------------|
|
|   Gtr II
|         PM----|
|   E E E E E E E E   E E E E E E S S E
||------------------|-------------------|
||o-----------------|-------------------|
||------------------|-------------------|
||--9---8---------9-|---8---8-7h8-7h8p7-|
||o-7---7-7-7-7-7-7-|---7---7-----------|
||------------------|-------------------|


    PM
  E E E E  E  E E E   E E E E E E S S E
|-------------------|--------------------|
|-------------------|--------------------|
|-------------------|--------------------|
|-9---8---11-10-9-9-|---8---8-7h8-7h8p7--|
|-7-7-7-----------7-|---7---7------------|
|-------------------|--------------------|
|
|   PM
| E E E E  E  E E E   E E E E E E S S E
|-------------------|--------------------|
|-------------------|--------------------|
|-------------------|--------------------|
|-9---8----8--7-6-9-|---8---8-7h8-7h8p7--|
|-7-7-7-----------7-|---7---7------------|
|-------------------|--------------------|


  Db5
  Gtrs I, II
        PM----|
  E E E E E E E E   E E E E E E S S E
|-----------------|-------------------|
|-----------------|-------------------|
|-----------------|-------------------|
|-6---5---------6-|---5---5-4h5-4h5-4-|
|-4---4-4-4-4-4-4-|---4---4-----------|
|-----------------|-------------------|


                                    2/4
    PM                        PM       PM
  E E E E E E E E   E E E E E E Q    E E Q
|-----------------|----------------|-----------||
|-----------------|----------------|----------o||
|-----------------|----------------|-----------||
|-6---5---8-7-6-6-|---5---5--------|-----------||
|-4-4-4---------4-|---4---4-5---6--|-5---6----o||
|-----------------|-----------0-4--|---0-4-----||


 Chorus
      Ab5        D5      Fb5           Ab      G
 4/4
  Gtrs I, II
  PM|                      PM--------|           PM------------|
  E E Q  E S S E E   +E  E E E S S E E E   +E  E E E S S E S S E
|------------------|---------------------|-----------------------|
|------------------|---------------------|-----------------------|
|------------------|-------------------5-|-(5)s4-----------------|
|----------------7-|-(7)-9-------------6-|-(6)s5-----------------|
|-5---6----------5-|-(5)-7---------------|-----------------------|
|---0-4--4-4-4-4---|-------0-0-0-0-0-0---|-------0-0-0-0-0-0-0-0-|


  F#G5
  Gtrs I, II
      PM|               PM----|
  E E E E E E E E   +E  E E E E E E E
|-----------------|-------------------|
|-----------------|-------------------|
|-----------------|-------------------|
|---------------2-|-(2)-3-2-0-2-0-----|
|-4s5-----7-0---2-|-(2)-3-2-0-2-0---5-|
|-2s3-0-0---------|---------------0---|


                    Ab      G
                              PM------------|
  +E  E E E S S E E E   +E  E E E S S E S S E
|---------------------|------------------------|
|---------------------|------------------------|
|-------------------5-|-(5)s4------------------|
|-----2-------------6-|-(6)s5------------------|
|-(5)-2---------------|------------------------|
|-------0-0-0-0-0-0---|-------0-0-0-0-0-0-0-0--|


  F#G5                          BbA5  G5       F5G5  F5
  Gtrs I, II
      PM|                       PM|        PM--------|
                              |-3-|                            |-3-|
  E E E E E Q  E   +E   E E E Q Q Q   Q.   E E E S S E   Q  Q  Q Q Q
|----------------|------------------|------------------|--------------|
|----------------|------------------|------------------|--------------|
|-----------9--9-|-(9)-10s9s7s9-----|------------------|--------------|
|----------------|------------------|------------------|-------6-5-3--|
|-4s5-----7-7--7-|-(7)--8s7s5s7-8-7-|-5----5-5-3-5-5-3-|-3--3---------|
|-2s3-0-0--------|--------------6-5-|-3----3-3-1-3-3-1-|-1--1--4-3-1--|


 Bridge
    Fb5         A5       Ab5F5 Ab5  Fb5           A5       Ab5F5 Ab5
    PM--------|                     PM----------|
  E E E E E E E E   +Q   Q  Q  Q    E E E E E E E E   +Q   Q  Q  Q
|-----------------|---------------|-----------------|---------------|
|-----------------|---------------|-----------------|---------------|
|-----------------|---------------|-----------------|---------------|
|-2---------------|---------------|-----------------|---------------|
|-2-2-2-2-2-2-2-7-|-(7)--6--3--6--|-2-2-2-2-2-2-2-7-|-(7)--6--3--6--|
|---0-0-0-0-0-0-5-|-(5)--4--1--4--|-0-0-0-0-0-0-0-5-|-(5)--4--1--4--|


  Fb5           A5       Ab5F5 Ab5  Fb5           A5       Ab5F5  Ab5
  Gtrs I, II
    PM--------|                     PM----------|             PM  PM
  E E E E E E E E   +Q   Q  Q  Q    E E E E E E E E   +Q   Q  E E Q
|-----------------|---------------|-----------------|----------------|
|-----------------|---------------|-----------------|----------------|
|-----------------|---------------|-----------------|----------------|
|-----------------|---------------|-----------------|----------------|
|-2-2-2-2-2-2-2-7-|-(7)--6--3--6--|-2-2-2-2-2-2-2-7-|-(7)--6--3---6--|
|-0-0-0-0-0-0-0-5-|-(5)--4--1--4--|-0-0-0-0-0-0-0-5-|-(5)--4--1---4--|


  Fb5            F5       Ab5A5 Ab5  Fb5            A5       Ab5F5 Ab5
  Gtr I
    PM|                                PM|
  E E E E  E E E E   +Q   Q  Q  Q    E E E E E  E E E   +Q   Q  Q  Q
|------------------|---------------|------------------|---------------|
|------------------|---------------|------------------|---------------|
|------------5-6---|---------------|-------6-5--------|---------------|
|-9-----5--8-------|---------------|-9----------8-5---|---------------|
|-7--------------3-|-(3)--6--7--6--|-7--------------7-|-(7)--6--3--6--|
|---0-0----------1-|-(1)--4--5--4--|---0-0----------5-|-(5)--4--1--4--|
|
| Gtr II
|   PM|                                PM|
| E E E E  E E E E   +Q   Q  Q  Q    E E E E E  E E E   +Q   Q  Q  Q
|------------------|---------------|------------------|---------------|
|------------------|---------------|------------------|---------------|
|------------------|---------------|------------------|---------------|
|-9----------7-8---|---------------|-9-----8-7--------|---------------|
|-7-----7-10-----3-|-(3)--6--7--6--|-7---------10-7-7-|-(7)--6--3--6--|
|---0-0----------1-|-(1)--4--5--4--|---0-0----------5-|-(5)--4--1--4--|


                                                              To Coda
  Fb5            F5       Ab5A5 Ab5  Fb5            A5       Ab5F5 Ab5
    PM|                                PM|
  E E E E  E E E E   +Q   Q  Q  Q    E E E E E  E E E   +Q   Q  Q  Q
|------------------|---------------|------------------|---------------|
|------------------|---------------|------------------|---------------|
|------------5-6---|---------------|-------6-5--------|---------------|
|-9-----5--8-------|---------------|-9----------8-5---|---------------|
|-7--------------3-|-(3)--6--7--6--|-7--------------7-|-(7)--6--3--6--|
|---0-0----------1-|-(1)--4--5--4--|---0-0----------5-|-(5)--4--1--4--|
|
|   PM|                                PM|
| E E E E  E E E E   +Q   Q  Q  Q    E E E E E  E E E   +Q   Q  Q  Q
|------------------|---------------|------------------|---------------|
|------------------|---------------|------------------|---------------|
|------------------|---------------|------------------|---------------|
|-9----------7-8---|---------------|-9-----8-7--------|---------------|
|-7-----7-10-----3-|-(3)--6--7--6--|-7---------10-7-7-|-(7)--6--3--6--|
|---0-0----------1-|-(1)--4--5--4--|---0-0----------5-|-(5)--4--1--4--|


  Cb5               Bb5       Db5
                   2/4       4/4
  Gtrs I, II
  PM------------|
  E E E E E E E E   E E E E   W
|-----------------|---------|------|
|-----------------|---------|------|
|-----------------|---------|------|
|-4-4-4-4-4-4-4-4-|-3-3-3-3-|-6----|
|-2-2-2-2-2-2-2-2-|-1-1-1-1-|-4----|
|-----------------|---------|------|


 Guitar Solo
  Eb5        FbEb5 Fb5 Eb5        FbEb5 Fb5
 2/2
  Gtr I
    E  E E E E E E E     E  E E E E E E E
|-----11-------------|-----11-------------|
|-/11----9---7-7-----|-/11----9---7-7-----|
|----------8-------9-|----------8-------9-|
|----------------9---|----------------9---|
|--------------------|--------------------|
|--------------------|--------------------|
|
| Gtr II
|   H        E Q   E     H        E Q   E
|--------------------|--------------------|
|--------------------|--------------------|
|--------------------|--------------------|
|---8--------9s8---9-|---8--------9s8---9-|
|---6--------7s6---7-|---6--------7s6---7-|
|--------------------|--------------------|


  Eb5        FbEb5 Fb5 Db5
    E  E E E E E E E   E  E E  E E  E E  E
|-----11-------------|---------------------|
|-/11----9---7-7-----|---------------------|
|----------8-------9-|-------------11-9-11-|
|----------------9---|--------11-9---------|
|--------------------|---11-9--------------|
|--------------------|-9-------------------|
|
|                      PM---------------|
|   H        E Q   E   E  E E  E E  E E  E
|--------------------|---------------------|
|--------------------|---------------------|
|--------------------|---------------------|
|---8--------9s8---9-|-6--6-6--6-6--6-6--6-|
|---6--------7s6---7-|-4--4-4--4-4--4-4--4-|
|--------------------|---------------------|


  Eb5        FbEb5 Fb5 Eb5        FbEb5 Fb5
  Gtr I
   E  E  E E E E E E    E  E  E E E E E E
|-------11-------9---|-------11-------9---|
|-11-11------9-7-----|-11-11------9-7-----|
|----------8---------|----------8-------9-|
|--------------------|--------------------|
|------------------7-|--------------------|
|--------------------|--------------------|
|
| Gtr II
|  H         E Q   E    H         E Q   E
|--------------------|--------------------|
|--------------------|--------------------|
|--------------------|--------------------|
|--8---------9s8---9-|--8---------9s8---9-|
|--6---------7s6---7-|--6---------7s6---7-|
|--------------------|--------------------|


  Eb5        FbEb5 Fb5 Db5
   E  E  E E E E E E   E E  E E  E E  E E
|-------11-------9---|--------------------|
|-11-11------9-7-----|--------------------|
|----------8-------9-|---------------11-9-|
|--------------------|----------11-9------|
|--------------------|-----11-9-----------|
|--------------------|---9----------------|
|
|                      PM---------------|
|  H         E Q   E   E E  E E  E E  E E
|--------------------|--------------------|
|--------------------|--------------------|
|--------------------|--------------------|
|--8---------9s8---9-|-6-6--6-6--6-6--6-6-|
|--6---------7s6---7-|-4-4--4-4--4-4--4-4-|
|--------------------|--------------------|


  Eb5
  Gtr I
   Q.      +E   H           +Q   E E  Q  E E
|------------------------|-------------------|
|-11b12r==(11)-11--------|-(11)--7h9h11p=9p7S|
|------------------------|-------------------|
|------------------------|-------------------|
|------------------------|-------------------|
|------------------------|-------------------|
|
| Gtr II
|                  |-3-|
|  Q.       E   Q  E E E     Q.    E  Q.   E
|------------------------|-------------------|
|------------------------|-------------------|
|------------------------|-------------------|
|--8------------8--------|---8-----8--8----8-|
|--6--------9---6--7-6---|---6-----6--6----6-|
|----------------------9-|-------------------|


  Db5             Fb5
  W               S  S S S S S  S S S  S S S S S S S
|---------------|--------6-7-9--7-6----7-6-----6-----|
|-6-------------|-6--7-9------------9------9-7---9-7-|
|---------------|------------------------------------|
|---------------|------------------------------------|
|---------------|------------------------------------|
|---------------|------------------------------------|
|
| Q.   E Q.   E   Q.            E   Q.           E
|---------------|------------------------------------|
|---------------|------------------------------------|
|---------------|------------------------------------|
|-6----6-6----6-|-9-----------------9----------------|
|-4----4-4----4-|-7-----------------7----------------|
|---------------|--------------11--------------------|


  Eb                        Eb5
  Gtr I
  H      S  S S S S S S S   H      +E  S S S S S S
|-----------------6-------|--------------------6-7-|
|-----------6-7-9---9-7-6-|--------------6-7-9-----|
|-8------8----------------|-8------(8)-8-----------|
|-------------------------|------------------------|
|-------------------------|------------------------|
|-------------------------|------------------------|
|
| Gtr II
|    PM|                       PM|
| Q  E E Q.           E     Q  E E  Q.         E
|-------------------------|------------------------|
|-------------------------|------------------------|
|-------------------------|------------------------|
|-8------8------------9---|-8-------8----------8---|
|-6--7-7-6------------7---|-6--7-7--6----------6---|
|-------------------------|------------------------|


  Ab5
  S S S S S S S S S S S S S S S S
|-6-----6-------------------------|
|---9-7---9-7-6-9-7-6---7-6-------|
|---------------------8-----8-6---|
|-------------------------------9-|
|---------------------------------|
|---------------------------------|
|
|         PM--|
| Q       E   E   H
|---------------------------------|
|---------------------------------|
|---------------------------------|
|---------------------------------|
|-6---------------6---------------|
|-4-------4---4---4---------------|


  F#5
  Gtr I
  S S S S S S S S S S S S S S S S
|---------------------------------|
|---------------------------------|
|---6-----------------------------|
|-8---9-8-6-9-8-6---8-6-----6-----|
|-----------------9-----9-8---9-8-|
|---------------------------------|
|
| Gtr II
| PM----------------------|
| E   E   E   E   E   E   E   E
|---------------------------------|
|---------------------------------|
|---------------------------------|
|---------------------------------|
|-4---4---4---4---4---4---4-------|
|-2---2---2---2---2---2---2-------|


  Eb5
                                      |-3-|
   H       S S S S S S e   H      S S S S S E E
|------------------------|-----------------------|
|------------------------|-----------------------|
|--------------6---------|------------6----------|
|----------8-9---8p6-----|--------8h9---9p8-6----|
|-[6]----------------9-8-|-6------------------9--|
|------------------------|-----------------------|
|
|  Q   E E H               Q  E E H
|------------------------|-----------------------|
|------------------------|-----------------------|
|------------------------|-----------------------|
|--8---9---8-------------|-8--9---8--------------|
|--6-----6-6-------------|-6----6-6--------------|
|------------------------|-----------------------|


  Db5                                          Cb5
  Gtr I
           |-3-|
  Q.   S S S S S E E E   Q.   S  S S S E E E   Q.   S S S S  S S S  S S S
|----------------------|---------------------|------------------------------|
|----------------------|---------------------|------------------------------|
|--------6h8p6---------|------8h10p8---------|------------------------------|
|------9-------9-8p6---|-------------9-8p6---|------------------------8-----|
|-8------------------9-|-8-----------------9-|-9----6h8-8h9h11-8h9h11---9h==|
|----------------------|---------------------|------------------------------|
|
| Gtr II
| Q.   E   H             Q.   E    H           Q.   E   H
|----------------------|---------------------|------------------------------|
|----------------------|---------------------|------------------------------|
|----------------------|---------------------|------------------------------|
|-6--------6-----------|-6---------6---------|-4--------4-------------------|
|-4----6---4-----------|-4----6----4---------|-2----2---2-------------------|
|----------------------|---------------------|------------------------------|


  Cb5
  Gtr I
   S  S S  S S S  S S S  S  S S  S  S  S  S
|-------------------------------------------|
|-------------------------------------------|
|-------------------------------------10----|
|-----8-9----8-9-11-8-9-11-13-9-11-13----11-|
|-11------11--------------------------------|
|-------------------------------------------|
|
| Gtr II
|  Q.             E   H
|-------------------------------------------|
|-------------------------------------------|
|-------------------------------------------|
|--4------------------4---------------------|
|--2--------------2---2---------------------|
|-------------------------------------------|


  F5
                                                                 |---3---|  |----3----|
   S  S  S  S  S  S  S  S  S  S  S  S  S  S  S  S    S  S  S  S  E  E    E  q    q    q
|-------------------------------------------------|------------------------13---15---16------|
|-------------------------------11-------11-12----|-11-12-14-11-12-14---16-------------------|
|----10-11----11-10-13-10-11-13----12-13-------13-|------------------------------------------|
|-13-------13-------------------------------------|------------------------------------------|
|-------------------------------------------------|------------------------------------------|
|-------------------------------------------------|------------------------------------------|
|
|  PM-----------------------------------------------------------------------------------|
|  E     E     E     E     E     E     E     E       S  S  E     E    E     E E    E    E
|-------------------------------------------------|------------------------------------------|
|-------------------------------------------------|------------------------------------------|
|-------------------------------------------------|------------------------------------------|
|-------------------------------------------------|------------------------------------------|
|--3-----3-----3-----3-----3-----3-----3-----3----|--3--3--3-----3----3-----3-3----3----3----|
|--1-----1-----1-----1-----1-----1-----1-----1----|--1--1--1-----1----1-----1-1----1----1----|


  Gtr I
                 ~~~~~
                                             |--3---|
   Q.       +E   H          +E   E  S  S  E  Q   Q  Q
|-15b16r===(15)-15b16----|-(15)----------13-15--16-18---|
|------------------------|------------13----------------|
|------------------------|---------13-------------------|
|------------------------|------15----------------------|
|------------------------|------------------------------|
|------------------------|------------------------------|
|
|          Gtr II
|        PM|
|  Q     E   E   H           H               Q.       E
|------------------------|------------------------------|
|------------------------|------------------------------|
|------------------------|------------------------------|
|------------------------|------------------------------|
|--3-------------3-------|---3---------------3--------1-|
|--1-----1---1---1-------|---1---------------1----------|


  Cb5
                 ~~~~~
   Q.       +E   H           +Q   Q.          +Q    E
|-18b19r===(18)-18b19-----|-(18)-19b21-------(19)--19--|
|-------------------------|----------------------------|
|-------------------------|----------------------------|
|-------------------------|----------------------------|
|-------------------------|----------------------------|
|-------------------------|----------------------------|
|
|  Q     E   E   Q.     E     Q.        E  E   Q    E
|-------------------------|----------------------------|
|-------------------------|----------------------------|
|-------------------------|----------------------------|
|--4-------------4--------|---4------------------------|
|--2-----2-------2--------|---2p=======(0)-----4----4--|
|------------2----------2-|----------------4---4----4--|


  Eb5     FbEb5
  Gtr I
   ~~
   W                S  S  S  S  S  S  S  S  S  S  S  S  S  S  S  S
|-18-------------|-18h21p19p18-16h19p18p16-14h18p16p14-13h16p14p13-|
|----------------|-------------------------------------------------|
|----------------|-------------------------------------------------|
|----------------|-------------------------------------------------|
|----------------|-------------------------------------------------|
|----------------|-------------------------------------------------|
|
| Gtr I
|  W                S  S  S  S  S  S  S  S  S  S  S  S  S  S  S  S
|----------------|-14h18p16p14-13h16p14p13-11h14p13p11--9h13p11p=9-|
|----------------|-------------------------------------------------|
|----------------|-------------------------------------------------|
|----------------|-------------------------------------------------|
|----------------|-------------------------------------------------|
|----------------|-------------------------------------------------|
|
| Gtr II
|  Q  E E E Q  E    Q.                E     Q.                E
|----------------|-------------------------------------------------|
|----------------|-------------------------------------------------|
|----------------|-------------------------------------------------|
|--8--8---9s8----|--8-----------------------8----------------------|
|--6--6-9-7s6----|--6-----------------------6----------------------|
|----------------|--------------------6----------------------------|


  Ab5                                            F#5
  Gtr I
   S  S  S  S S  S  S  S S   S  S S  S  S S  S    S  S e S S e S S e S S e
|-11h14p13p11-9----------9---------------------|----------------------------|
|---------------12p11h12----12p11p9------------|----------------------------|
|-----------------------------------11p10p8h10-|-11p10p8--------------------|
|----------------------------------------------|---------9p8p6-9p8p6--------|
|----------------------------------------------|---------------------9p8p6--|
|----------------------------------------------|----------------------------|
|
| Gtr I
|  S  S  S  S S  S  S  S S   S  S S  S  S S  S    S  S e S S e S S e S S e
|--7h11p=9p=7-6----------6---------------------|----------------------------|
|----------------9p=7h=9-----9p=7p6------------|----------------------------|
|------------------------------------8p=6----6h|==8--6----------------------|
|-----------------------------------------9----|-------9-6p4---6p4----------|
|----------------------------------------------|-------------8-----8-6p4----|
|----------------------------------------------|-------------------------7--|
|
| Gtr II
|                                                 PM---------------------|
|  Q          E     E    Q.               E       E    E E   E E   E E   E
|----------------------------------------------|----------------------------|
|----------------------------------------------|----------------------------|
|----------------------------------------------|----------------------------|
|----------------------------------------------|----------------------------|
|--6----------7-----7----6---------------------|--4----4-4---4-4---4-4---4--|
|--4---------------------4---------------------|--2----2-2---2-2---2-2---2--|


  Cb5
  Gtr I
  W                           H      E    S S S S S S
|------------------------|----------------------------|
|------------------------|----------------------------|
|------------------------|-----------8h==10p8p6-------|
|------------------------|----------------------9p8p6-|
|-9----------------------|-/[21]----------------------|
|------------------------|----------------------------|
|
| Gtr I
| H      S S S S S S S S      H      S S  S S S S S S
|------------------------|----------------------------|
|------------------------|----------------------------|
|--------3h4h6p4p3-------|-----------3h4h=6p4p3-------|
|------------------6p4p3-|----------------------6p4p3-|
|-6----------------------|----6-----------------------|
|------------------------|----------------------------|
|
| Gtr II
| Q.   E Q.          E        Q.   E Q.           E
|------------------------|----------------------------|
|------------------------|----------------------------|
|------------------------|----------------------------|
|-4------4---------------|----4------4----------------|
|-2----2-2-----------2---|----2----2-2------------2---|
|------------------------|----------------------------|


  Db5
  Gtr I
  H         H                    H       +Q.          E
|---------------------------|-----------------------------|
|---------------------------|-----------------------------|
|---------------------------|-----------------------------|
|---------------------------|-----------------------------|
|-8------/[20]--------------|-/[20]-----(20)--------------|
|---------------------------|-----------------------------|
|
| Gtr I
| H         S S S S S S S S      H        S S S S S S S S
|---------------------------|-----------------------------|
|---------------------------|-----------------------------|
|-----------3h4h6p4p3-------|-------------3h4h6p4p3-------|
|---------------------6p4p3-|-----------------------6p4p3-|
|-4-------------------------|----4------------------------|
|---------------------------|-----------------------------|
|
| Gtr II
| Q.   E    Q.          E        Q.   E   Q.          E
|---------------------------|-----------------------------|
|---------------------------|-----------------------------|
|---------------------------|-----------------------------|
|-6---------6---------------|----6--------6---------------|
|-4----4----4-----------4---|----4----4---4-----------4---|
|---------------------------|-----------------------------|


  Cb5
  Gtr I
  |-3-|
  Q Q Q   Q.   S S    H       +Q.   E
|------------------|------------------|
|------------------|------------------|
|------------------|------------------|
|---------6--------|------------------|
|-9s8-6--------9-8-|-[6]------(6)---6-|
|------------------|------------------|
|
| Gtr II
| Q.    E Q.   E      Q   E E  H
|------------------|------------------|
|------------------|------------------|
|------------------|------------------|
|-4-------4--------|--4--------4------|
|-2-----2-2----2---|--2--------2------|
|------------------|------4-4---------|


  S S S  S S S  S  S  S  S  S  S  S  S  S  S
|--------------------------------------11-13-|
|-----------------------------11-12-14-------|
|--------------------10-11-13----------------|
|----------8-9-11-13-------------------------|
|-6h8h9-11-----------------------------------|
|--------------------------------------------|
|
| PM-----------------------------------|
| E   E    E    E     E     E     E     E
|--------------------------------------------|
|--------------------------------------------|
|--------------------------------------------|
|-4---4----4----4-----4-----4-----4-----4----|
|-2---2----2----2-----2-----2-----2-----2----|
|--------------------------------------------|


                                                           D.S. al Coda
  Cb5
  Gtr I
   e E Q  E E E E   H     E E E  E   H     E E E  E   H     E  E  E  E
|-14--------------|----------------|----------------|--------------------|
|-----------------|----------------|----------------|------13----10-13---|
|-----------------|----------------|------10---7-10-|-9-------10---------|
|-----------------|------10---7-10-|-9-------9------|--------------------|
|---------8---5-8-|-7-------8------|----------------|--------------------|
|-----------7-----|----------------|----------------|--------------------|
|
| Gtr II
|  PM
|  E E Q  E E E E   H     E E E  E   H     E E E  E   H     E  E  E  E
|-----------------|----------------|----------------|--------------------|
|-----------------|----------------|----------------|--------------------|
|-----------------|----------------|----------------|--------------------|
|--4--------------|----------------|----------------|--------------------|
|--2------8---5-8-|-7-----8---5--8-|-7-----8---5--8-|-7-----8-----5--8---|
|-----------7-----|---------7------|---------7------|----------7---------|


  &
  Gtrs I, II
    PM|                               PM|
  E E E E E E E E   +Q   Q  Q  Q    E E E E E E E E   +Q   Q  Q  Q
|-----------------|---------------|-----------------|---------------|
|-----------------|---------------|-----------------|---------------|
|-----------5-6---|---------------|-------6-5-------|---------------|
|-9-----5-8-------|---------------|-9---------8-5---|---------------|
|-7-------------3-|-(3)--6--7--6--|-7-------------7-|-(7)--6--3--6--|
|---0-0---------1-|-(1)--4--5--4--|---0-0---------5-|-(5)--4--1--4--|


                                                                  H.=H
  Gtrs I, II
    PM|                               PM|
  E E E E E E E E   +Q   Q  Q  Q    E E E E E E E E   +Q   Q  E E Q
|-----------------|---------------|-----------------|----------------|
|-----------------|---------------|-----------------|----------------|
|-----------5-6---|---------------|-------6-5-------|----------------|
|-9-----5-8-------|---------------|-9---------8-5---|----------------|
|-7-------------3-|-(3)--6--7--6--|-7-------------7-|-(7)--6--3---6--|
|---0-0---------1-|-(1)--4--5--4--|---0-0---------5-|-(5)--4--1---4--|


  Fb5
  Gtrs I, II
             PM--------------|        PM|
             |-3-|
  W          E E E E E E E E E   H    E E Q
|----------|-------------------|-------------*|
|----------|-------------------|-------------*|
|----------|-------------------|-------------*|
|-2--------|---------------2-2-|-2-----------*|
|-2--------|-2-2-2-2-2-2-2-2-2-|-2----2-2----*|
|-0--------|-0-0-0-0-0-0-0-----|-0----0-0----*|



Duration Legend
---------------
W - whole; H - half; Q - quarter; E - 8th; S - 16th; T - 32nd; X - 64th; a - acciaccatura
+ - note tied to previous; . - note dotted; .. - note double dotted
Uncapitalized letters represent notes that are staccato (1/2 duration)
Irregular groupings are notated above the duration line
Duration letters will always appear directly above the note/fret number it represents the
duration for.  Duration letters with no fret number below them represent rests.  Multi-
bar rests are notated in the form Wxn, where n is the number of bars to rest for.  Low
melody durations appear below the staff

Tablature Legend
----------------
 h   - hammer-on
 p   - pull-off
 b   - bend
 pb  - pre-bend
 r   - bend release (if no number after the r, then release immediately)
 /\  - slide into or out of (from/to "nowhere")
 s   - legato slide
 S   - shift slide
 - natural harmonic
[n]  - artificial harmonic
n(n) - tapped harmonic
 ~   - vibrato
 tr  - trill
 T   - tap
 TP  - trem. picking
 PM  - palm muting
\n/  - tremolo bar dip; n = amount to dip
 \n  - tremolo bar down
 n/  - tremolo bar up
/n\  - tremolo bar inverted dip
 =   - hold bend; also acts as connecting device for hammers/pulls
 <> - volume swell (louder/softer)
 x   - on rhythm slash represents muted slash
 o   - on rhythm slash represents single note slash

Misc Legend
-----------
 |  - bar
||  - double bar
||o - repeat start
o|| - repeat end
*|  - double bar (ending)
 :  - bar (freetime)
 $  - Segno
 &  - Coda
Tempo markers -  = BPM(8/16=s8/s16), where s8 = swing 8ths, s16 = swing 16ths

Tap to rate this tab
# A B C D E F G H I J K L M N O P Q R S T U V W X Y Z