Guitaretab - guitar tabs
Song name
# A B C D E F G H I J K L M N O P Q R S T U V W X Y Z

Testament - Time Is Coming tab

T E S T A M E N T:

T I M E  I S  C O M I N G  from the album P R A C T I C E  W H A T  Y O U  P R E A C H

Tabbed by Juhani Moilanen
E-mail: j_0698_moilanen@hotmail.com


(A) INTRO:

Guitar 1
-------------------9-----------------------------------------------------------------------------------|
----------------9-----12--9--8----------7--------5--------4--------------------------------------------|
---------6---9------------------9----------8--------6--------6------1h2p1-----1------------------------|
------6----------------------------11---------9--------7--------7----------4-----4p2p1-----------------|
---4---------------------------------------------------------------------------------------------------|
-------------------------------------------------------------------------------------------------------|

Guitar 2
-------------------------------------------------------------------------------------------------------|
-------------------------------------------------------------------------------------------------------|
-------------------------------------------------------------------------------------------------------|
---11----------------------12---------11---------9----------7------------------------------------------|
---11----------------------10----------9---------7----------5-------11---------------------------------|
---9---9--9--9--9--9--9---------------------------------------------9----------------------------------|

Play one more time


Guitars 1 & 2

-------------------------------------------------------------------------------------------------------
-------------------------------------------------------------------------------------------------------
-------------------------------------------------------------------------------------------------------
---6------------------------12-------11-------9---------7------6----------4--6--4----------------------
---6---4--4--4--4--4--4--4--10-------9--------7---------5------4----6--7-----------7--6----------------
---4---------------------------------------------------------------------------------------------------

----------------------------------------------------------------------------------4--------------------
-------------------------------------------------------------------------4--5--7-----7--5--4-----------
----6---------------------------------------------------------------6----------------------------------
----6------------------------12------11--------9------7--------6---------------------------------------
----4---4--4--4--4--4--4--4--10------9---------7------5--------4---------------------------------------
-------------------------------------------------------------------------------------------------------


-------------------------------------------------------------------------------------------------------
-------------------------------------------------------------------------------------------------------
----6----------------------------------------------------------------1h2p1------1----------------------
----6-------------------------------12----11-----9------7----6---------------4------4p2p1--------------
----4---4---4---4---4---4---4---4---10----9------7------5----4-----------------------------------------
-------------------------------------------------------------------------------------------------------


Guitar 1
-------------------------------------------------------------------------------------------------------
-------------------------------------------------------------------------------------------------------
----6---------------------------------12---------11--------9---------7--------4------4-----------------
----6-----------------------------12---------11---------9---------7------------------------------------
----4--4--4--4--4--4--4--4----10----------9----------7---------5--------------2------2-----------------
-------------------------------------------------------------------------------------------------------

Guitar 2
-------------------------------------------------------------------------------------------------------
-------------------------------------------------------------------------------------------------------
----6--------------------------------------------------------------------------------------------------
----6--------------------------12------------11--------9---------7------------4------4-----------------
----4--4--4--4--4--4--4--4-----10-------------9--------7---------5------------2------2-----------------
-------------------------------------------------------------------------------------------------------


-------------------------------------------------|------------------------------------------------------
-------------------------------------------------|------------------------------------------------------
-------------------------------------------------|------------------------------------------------------
-------------------------------------5--5--4--4--|------------------------------------3-----2-----------
----2--2--4/5--2--2--4/5--2--2--4/5--3--3--2--2--|--2--2--4/5--2--2--4/5--2--2--4/5---1-----0-----------
----0--0--2/3--0--0--2/3--0--0--2/3--------------|--0--0--2/3--0--0--2/3--0--0--2/3---------------------


-------------------------------------------------|-----------------------------------|-------------------
-------------------------------------------------|-----------------------------------|-------------------
-------------------------------------------------|-----------------------------------|--2------2-/-------
-------------------------------------5--5--4--4--|-----------------------------------|--2------2-/-------
----2--2--4/5--2--2--4/5--2--2--4/5--3--3--2--2--|--2--2--4/5--2--2--4/5--2--2--4/5--|--0------0-/-------
----0--0--2/3--0--0--2/3--0--0--2/3--------------|--0--0--2/3--0--0--2/3--0--0--2/3--|-------------------



--------------------------------------------------------|------------------------------------------------------
--------------------------------------------------------|------------------------------------------------------
---15-----------------------15-----14------------14/15--|------------------------15-----14------------14/15----
---15-----------------------15-----14------------14/15--|------------------------15-----14------------14/15----
---13-----------------------13-----12-----14/15--12/13--|------------------------13-----12-----14/15--12/13----
-------0--0--0--0--0--0--0------0------0--12/13---------|-0--0--0--0--0--0--0--0-----0------0--12/13-----------


----------------------------------------------------|----------------------------------------------------------
----------------------------------------------------|----------------------------------------------------------
----------------------------15-----14---------------|----------------------------------------------------------
----------------------------15-----14---------------|----------------------------------------------------------
----------------------------13-----12-----8\7--8\7--|-----5\4-----4----4/5-----8--7-----7-----7/8--------------
----0--0--0--0--0--0--0--0------0------0--6\5--6\5--|--0--3\2--0--2p0--2/3--0--6--5--0--5p0---5/6--------------


(B) Verse:

   (Yeah,  the way I feel...)
-------------------------------------------------------|-------------------------------------------------------
-------------------------------------------------------|-------------------------------------------------------
---15--------------------------------------------14/15-|-------------------------15----14------------14/15-----
---15--------------------------------------------14/15-|-------------------------15----14------------14/15-----
---13-------------------------------------14/15--12/13-|-------------------------13----12-----14/15--12/13-----
-------0--0--0--0--0--0--0----0--0--0--0--12/13--------|-0--0--0--0--0--0--0--0-----0------0--12/13------------


-------------------------------------------------------|-------------------------------------------------------
-------------------------------------------------------|-------------------------------------------------------
---------------------------15-----14-------------------|-------------------------------------------------------
---------------------------15-----14-------------------|-------------------------------------------------------
---------------------------13-----12-----8\7--8\7------|-----5\4-----4----4/5-----8--7-----7----7/8------------
---0--0--0--0--0--0--0--0------0------0--6\5--6\5------|--0--2\2--0--2p0--2/3--0--6--5--0--5p0--5/6------------


-------------------------------------------------------|-------------------------------------------------------
-------------------------------------------------------|-------------------------------------------------------
---15------------------------------------------14/15---|-------------------------15-----14------------14/15----
---15------------------------------------------14/15---|-------------------------15-----14------------14/15----
---13-----------------------------------14/15--12/13---|-------------------------13-----12-----14/15--12/13----
-------0--0--0--0--0--0--0--0--0--0--0--12/13----------|--0--0--0--0--0--0--0--0-----0------0--12/13-----------


-------------------------------------------------------|-------------------------------------------------------
-------------------------------------------------------|-------------------------------------------------------
---------------------------15-----14-------------------|-------------------------------------------------------
---------------------------15-----14-------------------|-------------------------------------------------------
---------------------------13-----12-----8\7----8\7----|-----5\4-----4----4/5-----8--7-----7-----7/8-----------
---0--0--0--0--0--0--0--0------0------0--6\5----6\5----|--0--3\2--0--2p0--2/3--0--6--5--0--5p0---5/6-----------



(C) Chorus:

  (The time is coming...)
-------------------------------------|-----------------------------|-------------------------------------------
-------------------------------------|-----------------------------|-------------------------------------------
-------------------------------------|-----------------------------|-------------------------------------------
-------------------------------------|-----------------------------|-------------------------------------------
--9----8-----5--2--2--2--2--2--2--2--|--9---8----5--2---2---2---2--|--9---8------5--2--2--2--2--2--2-----------
--7----6-----3--0--0--0--0--0--0--0--|--7---6----3--0---0---0---0--|--7---6---0--3--0--0--0--0--0--0-----------


PM on 6th string-----------------------|
-----------------------------------------|---------------------------------|-----------------------------------
-----------------------------------------|---------------------------------|-----------------------------------
-----------------------------------------|---------------------------------|-----------------------------------
-----------------------------------------|---------------------------------|-----------------------------------
--------7--------7-----7--5--------------|--9--8---5--2--2--2--2--2--2--2--|--9---8---5---2--2---2--2----------
--0--0-----0--0-----0--------0--0--0--0--|--7--6---3--0--0--0--0--0--0--0--|--7---6---3---0--0---0--0----------


---------------------------------------------|-----------------------------------------------------------------
---------------------------------------------|-----------------------------------------------------------------
---------------------------------------------|-----------------------------------------------------------------
---------------------------------------------|-----------------------------------------------------------------
--9------8----------5---2--2--2--2--2--2--2--|--2--2--2--2--2--2--2--2--2--2--2--2--2--2--2--2-----------------
--7------6------0---3---0--0--0--0--0--0--0--|--0--0--0--0--0--0--0--0--0--0--0--0--0--0--0--0-----------------


--------------------------------------------------|------------------------------------------------------------
--------------------------------------------------|------------------------------------------------------------
--------------------------------------------------|------------------------------------------------------------
--------------------------------------------------|--------------------------------------3---------------------
-----------------------------3--------5-----------|-----------------------------3-----2-----2-----2------------
--0--0--0--2--0--0--3--0--0-----0--0-----0--3--0--|--0--0--0--2--0--0--3--0--0-----0-----------3---------------


 (Searching for answers to make life complete...)
--------------------|-----------------|-----------------|------------------------------------------------------
--------------------|-----------------|-----------------|------------------------------------------------------
--------------------|-----------------|-----------------|----------------12---------11--------9--------7-------
--6--------9--------|--11--------12---|----6-------9----|--11--------12---------11---------9--------7-----4----
--4--------7--------|---9--------10---|----4-------7----|---9----10----------9----------7--------5--------2----
--------------------|-----------------|-----------------|------------------------------------------------------



Guitar 1
-------------------9-----------------------------------------------------------------------------------|
----------------9-----12--9--8----------7--------5--------4--------------------------------------------|
---------6---9------------------9----------8--------6--------6------1h2p1-----1------------------------|
------6----------------------------11---------9--------6--------7----------4-----4p2p1-----------------|
---4---------------------------------------------------------------------------------------------------|
-------------------------------------------------------------------------------------------------------|

Guitar 2
-------------------------------------------------------------------------------------------------------|
-------------------------------------------------------------------------------------------------------|
-------------------------------------------------------------------------------------------------------|
---11----------------------12---------11---------9----------7------------------------------------------|
---11----------------------10----------9---------7----------5-------11---------------------------------|
---9---9--9--9--9--9--9---------------------------------------------9----------------------------------|

[ Tab from: http://www.guitaretab.com/t/testament/44717.html ]
Guitar 1
-------------------9-----------------------------------------------------------------------------------|
----------------9-----12--9--8----------7--------5--------4--------------------------------------------|
---------6---9------------------9----------8--------6--------6------1h2p1-----1------------------------|
------6----------------------------11---------9--------6--------7----------4-----4p2p1-----------------|
---4---------------------------------------------------------------------------------------------------|
-------------------------------------------------------------------------------------------------------|

Guitar 2
-------------------------------------------------------------------------------------------------------|
-------------------------------------------------------------------------------------------------------|
-------------------------------------------------------------------------------------------------------|
---11----------------------12---------11---------9----------7------------------------------------------|
---11----------------------10----------9---------7----------5-------11---------------------------------|
---9---9--9--9--9--9--9---------------------------------------------9----------------------------------|


Guitar 1
-------------------9-----------------------------------------------------------------------------------|
----------------9-----12--9--8----------7--------5--------4--------------------------------------------|
---------6---9------------------9----------8--------6--------6------1h2p1-----1------------------------|
------6----------------------------11---------9--------6--------7----------4-----4p2p1-----------------|
---4---------------------------------------------------------------------------------------------------|
-------------------------------------------------------------------------------------------------------|

Guitar 2
-------------------------------------------------------------------------------------------------------|
-------------------------------------------------------------------------------------------------------|
-------------------------------------------------------------------------------------------------------|
---11----------------------12---------11---------9----------7------------------------------------------|
---11----------------------10----------9---------7----------5-------11---------------------------------|
---9---9--9--9--9--9--9---------------------------------------------9----------------------------------|



Guitar 1
-------------------9-----------------------------------------------------------------------------------|
----------------9-----12--9--8----------7--------5--------4--------------------------------------------|
---------6---9------------------9----------8--------6--------6-----------------------------------------|
------6----------------------------11---------9--------6--------7----4h5p4-----4-----------------------|
---4------------------------------------------------------------------------7------7p5p4---------------|
-------------------------------------------------------------------------------------------------------|

Guitar 2
-------------------------------------------------------------------------------------------------------|
-------------------------------------------------------------------------------------------------------|
-------------------------------------------------------------------------------------------------------|
---11----------------------12---------11---------9----------7------------------------------------------|
---11----------------------10----------9---------7----------5-------11---------------------------------|
---9---9--9--9--9--9--9---------------------------------------------9----------------------------------|



---------------------------------------------------|-------------------------------------------------------
---------------------------------------------------|-------------------------------------------------------
---------------------------------------------------|-------------------------------------------------------
-------------------------------------5--5---4--4---|------------------------------------3---2--------------
---2--2--4/5--2--2--4/5---2--2--4/5--3--3---2--2---|--2--2---4/5--2--2--4/5--2--2--4/5--1---0--------------
---0--0--2/3--0--0--2/3---0--0--2/3----------------|--0--0---2/3--0--0--2/3--0--0--2/3---------------------

                                                       
---------------------------------------------------|-------------------------------------------------------
---------------------------------------------------|-------------------------------------------------------
---------------------------------------------------|-------------------------------------------------------
-------------------------------------5--5---4--4---|--------------------------------------/-9---9----------
---2--2--4/5--2--2--4/5---2--2--4/5--3--3---2--2---|--2--2---4/5--2--2--4/5--2--2--4/5----/-7---7----------
---0--0--2/3--0--0--2/3---0--0--2/3----------------|--0--0---2/3--0--0--2/3--0--0--2/3---------------------


  b+1 slowly
---------------------------------------------------
---------------------------------------------------
--2------------------------------------------------
----9--9--9--9--9--9--9--9--9--9----9--9--9--------
----7--7--7--7-----7--7--7--7--7----7--7--7--------
---------------------------------------------------



(D) Guitar Solo:



 AH-------------------------|

  b+1  r *************************************************************************************|
-----------------------------------------------------------------------------------------------------------
-----------------------------------------------------------------------------------------------------------
-----------------------------------------------------------------------------------------------------------
--(2)---(2)---(2)---(2)---(2)---(2)---(2)---2---(2)----(2)----(2)---(2)---(2)---(2)---(2)---(2)-/12-\------
-----------------------------------------------------------------------------------------------------------
-----------------------------------------------------------------------------------------------------------


   T          T     T         T     T         T     T         T     T         T     T         T     T
---12p7p5p0---12p7--12p7p5p0--12p7--12p7p5p0--12p7--12p7p5p0--12p7--12p7p5p0--12p7--12p7p5p0--12p2--12p3---
-----------------------------------------------------------------------------------------------------------
-----------------------------------------------------------------------------------------------------------
-----------------------------------------------------------------------------------------------------------
-----------------------------------------------------------------------------------------------------------
-----------------------------------------------------------------------------------------------------------

  T          T     T          T     T          T     T                                      b+1 ~~~~~~~~~~
--12p3p2p0---12p3--12p3p2p0---12p5--12p3p2p0---12p7--12p7p5p3---10--12/19-\--------------------------------
--------------------------------------------------------------------------------------------15-------------
-----------------------------------------------------------------------------/9--(9)-\---------------------
-----------------------------------------------------------------------------------------------------------
-----------------------------------------------------------------------------------------------------------
-----------------------------------------------------------------------------------------------------------

              b+1 ~~~ b+1~~~~      b+1~~~~~~                                 
--12--------------------------12-------------12------------------------------------------------------------
--------15----15------15-----------15----------------15--------15------------14p12-------------------------
-------------------------------------------------------------------12------------------12------------------
-----------------------------------------------------------------------------------------------------------
-----------------------------------------------------------------------------------------------------------
-----------------------------------------------------------------------------------------------------------


                                                                                                     Bend lower 
                                                                                                     note+1
-------------------------------------------------------------------------------------------------0---------
--12h15p12-------12-------15p12------------12h15p12----------------11h13p11--------------------------15----
-------------14------14----------14p12h14------------14p12--11h12------------12h14p12--11h12p11------14----
-----------------------------------------------------------------------------------------------------------
-----------------------------------------------------------------------------------------------------------
-----------------------------------------------------------------------------------------------------------

              b+1  r                       pb+1                             w/bar ~~~~~~~~~~~~~~~~~~~~
-----------------------------------------------------------------------------------------------------------
---------15-----------------15---15---15-------------------------------------------------------------------
--(14)--------14---(14)--------------------14-----14p12p11-------------------------------------------------
------------------------------------------------------------14--12--14p12---14p12--14p12--14p12--14p12-----
-----------------------------------------------------------------------------------------------------------
-----------------------------------------------------------------------------------------------------------

  w/bar~~~~~~~~~~~~~~~~~~~~~~~~~~~~                              b+1
--------------------------------------/9-\--/13-\----------------13----------------------------------------
----------------------------------------------------/12-\--------------------------------------------------
--------------------------------------------------------------------------------0--------------------------
--14p12--14p12--16p12--16p12--16p12------------------------------------------------------------------------
-----------------------------------------------------------------------------------------------------------
-----------------------------------------------------------------------------------------------------------


         bend both notes                                                                AH-------------|
   pb+1  b+1~~                                                                          b+1 r   b+1 r                    
---13----13----0--0--0-------------------------------------------------------------------------------------
---------13---------------15--15/--------------------------------------------------------------------------
----------------------------------------------12--14----12--14------12----------------------------------0--
------------------------------------12--14----------------------14------14---------------------------------
----------------------------------------------------------------------------14--13--12--10---(10)---(10)---
-----------------------------------------------------------------------------------------------------------

                                                                                  b+
-----------------------------------------------------------------------------------------------------------
--------------------------------------------------------------------------------------------12-------------
---------------------------------------------------9----7---9----11---11----9-----11-----------------------
--------------------------9--7--7--7--12--9--7h9-----------------------------------------------------------
---7---10--12--7--10--12-----------------------------------------------------------------------------------
-----------------------------------------------------------------------------------------------------------

   b+1                    AH                   pb+1~~~   pb+1~~~               b+1/4   ~~~
------------------------------------------------22--------(22)------22--19--17--15-------------------------
-------------12------------------------------------------------------------------------17-----/14----------
---9--------------9--------9------(9)-\--------------------------------------------------------------------
-----------------------------------------------------------------------------------------------------------
-----------------------------------------------------------------------------------------------------------
-----------------------------------------------------------------------------------------------------------

              b+   r          dig in      b+1   r                            b+1  r b+1   r     
---12---14----14----(14)--12---14----------15-----(15)-----------------------------------------------------
----------------------------------------15-----------------12h14p12------12----------(10)---(10)\----------
---------------------------------------------------------------------15-------14--------------------11-----
-----------------------------------------------------------------------------------------------------------
-----------------------------------------------------------------------------------------------------------
-----------------------------------------------------------------------------------------------------------


---------------------------------------------------------------------------------------------------------------
---------------------------------------------------------------------------------------------------------------
---14--12--11-12-----11------------------------------------------------------------9/12-12/9-9\7-7-9---(9)-----
-----------------14------14--12--11-14-12-11----12-11----11----------------------------------------------------
---------------------------------------------14-------14----14-12--14-12-10--------7/10-10/7-7\5-5-7---(7)--x\-
----------------------------------------------------------------------------14-12------------------------------


Outro:
                                                 ______________________________________________________ 
                                            AH   |1.
------------------------------------------------|----------------------------------------------------------
------------------------------------------------|----------------------------------------------------------
------------------------------------------------|----------------------------------------------------------
------------------------------------------------|-------------------------------------------2-----2--------
------------------------------3--------2-----2--|-----------------------------3----------2-----2-----2-----
---0--0--0--2--0--0--3--0--0-----0--0-----0-----|--0--0--0--2--0--0--3--0--0-----0--0--2----------------
Related for Time Is Coming tab