Song name
# A B C D E F G H I J K L M N O P Q R S T U V W X Y Z

Testament - New Eyes Of Old tab

-------------------------------------------------------------------------------
			     New Eyes of Old - Testament
-------------------------------------------------------------------------------
Tabbed by: atsguitars
Email: atsguitars@yahoo.com

Tuning: Drop(D)
        First Guitar
e|---------------------------------------------------------------------------|
B|---------------------------------------------------------------------------|
G|------------------------------------X2-------------------------------------|
D|---------------------------------------------------------------------------|
A|------------------------3---3-2-1------------------------------------------|
D|--00000-3-3^^^^^--00000-3-0-3-2-1------------------------------------------|
    .....           .....     . . .
        First Guitar
e|---------------------------------------------------------------------------|
B|---------------------------------------------------------------------------|
G|-------------------------------X3------------------------------------------|
D|---------------------------------------------------------------------------|
A|--------3-----------3---3-2-1----------------3----------3---3-2-1----------|
D|--00000-3-3^--00000-3-0-3-2-1----------00000-3-3--00000-3-0-3-2-1----------|
    .....       .....     . . .          .....   +  .....     . . . 
        Second Guitar
e|---------------------------------------------------------------------------|
B|---------------------------------------------------------------------------|
G|-*note---------------------------------------X2----------------------------|
D|---------------------------------------------------------------------------|
A|----slide-pick--------3-----------3---3-2-1--------------------------------|
D|----------------00000-3-3^--00000-3-0-3-2-1--------------------------------|
                  .....       .....     . . .
   *When first guitar is almost done playing riff twice come in with a sild    pick.

 /  slide up
 \  slide down
 h  hammer-on
 p  pull-off
 ~  vibrato
 +  harmonic
 .  Mute note
 ^  Bend
===============================================================================
Tap to rate this tab
# A B C D E F G H I J K L M N O P Q R S T U V W X Y Z