Song name
# A B C D E F G H I J K L M N O P Q R S T U V W X Y Z

Testament - Riding The Snake tab

Help us improve GuitareTab! Take a short survey!
-------------------------------------------------------------------------------
	                RIDING THE SNAKE - Testament
------------------------------------------------------------------------------
Tabbed by: evanwiyams
Email: mfulbright@hotmail.com

Tuning: C#G#C#F#A#D# (Dropped D, 1/2 step down)

D#|---------------------------------------------------------------------------|
A#|---------------------------------------------------------------------------|
F#|------2--3--------------2--3--------------2--3--------------2--3-----------|
C#|-----3-3--2------------3-3--2------------3-3--2------------3-3--2----------|
G#|----5---5--3-(3)------5---5--3-(3)------5---5--3-(3)------5---5--3-(3)-----|
C#|---0-----------------0-----------------0-----------------0-----------------|

D#|---------------------------------------------------------------------------|
A#|---------------------------------------------------------------------------|
F#|---------------------------------------------------------------------------|
C#|--------------------------0h3p0----------------------------3---------------|
G#|------------------3--5-(5)------0---------------------3--5---5--0----------|
C#|---0-(0)--6--3--6----------------3-2-1-0-(0)--6--3--6------------3-2-1-----|
***Bass arranged for guitar

D#|---------------------------------------------------------------------------|
A#|---------------------------------------------------------------------------|
F#|---------------------------------------------------------------------------|
C#|-----------------7---6-(6)------7p6------------------7---6-(6)-7p6-6-------|
G#|---5-(5)-----8----------------------8--5-(5)-----8----------------8-8-7----|
C#|---------------------------------------------------------------------------|

D#|---------------------------------------------------------------------------|
A#|---------------------------------------------------------------------------|
F#|---------7------6--------------------7------6------------------------------|
C#|---------------------------------------------------------------------------|
G#|---------5------4--------------------5------4------------------------------|
C#|---0--00---00-0---00-0--6-5-3--0--00---00-0---00-0--6-5-3------------------|

D#|---------------------------------------------------------------------------|
A#|---------------------------------------------------------------------------|
F#|---------10-----13-------------------7------6-(6)~-------------------------|
C#|---------------------------------------------------------------------------|
G#|---------8------11----------6--------5------4-(4)~-------------------------|
C#|---0--00---00-0---00-0--6-7----0--00---00-0--------------------------------|

D#|---------------------------------------------------------------------------|
A#|---------------------------------------------------------------------------|
F#|---------------------------------------------------------------------------|
C#|-----7-6----------------------7-6------------------------------------------|
G#|-----------7-6---6-5----------------7-6-------4----------------------------|
C#|---0-----0-----0-----5-6-7--0-----0-----5-6-7---7-6------------------------|

D#|---------------------------------------------------------------------------|
A#|---------------------------------------------------------------------------|
F#|----------7\----------------------7\---------------------------------------|
C#|---------------------------------------------------------------------------|
G#|----------5\--------3p2h3---------5\------------5-6------------------------|
C#|---0-00-0----0-00-0-3p2h3--0-00-0----0-0-05-6-7----------------------------|

D#|---------------------------------------------------------------------------|
A#|---------------------------------------------------------------------------|
F#|----------------------------------7\---------------------------------------|
C#|---------------------------------------------------------------------------|
G#|----------5+--------3p2h3---------5\----------6~6~6~-----------------------|
C#|---0-00-0----0-00-0-3p2h3--0-00-0----0-0-05-6------------------------------|


| /  slide up
| \  slide down
| h  hammer-on
| p  pull-off
| ~  vibrato
| +  harmonic
| x  Mute note
===============================================================================
Related for Riding The Snake tab