Song name
# A B C D E F G H I J K L M N O P Q R S T U V W X Y Z

Testeagles - Like No Other tab

Testeagles - Like No Other
Tabbed by Joel Chong
(joel_c@bigpond.net.au)

Dropped D Tuning.

Intro:
Some techno crap that ruined the song.


Main
E|----------------------------------|
B|----------------------------------|
G|----------------------------------|
D|--0-3-5-6-0-3-5--0-3-5-6-0-3-1----| x4
A|--0-3-5-6-0-3-5--0-3-5-6-0-3-1----|
D|--0-3-5-6-0-3-5--0-3-5-6-0-3-1----|


Verse [1:42]
E|----------------------------------|
B|----------------------------------|
G|----------------------------------|     This is only done for the first verse.
D|--0-3-5-6-0-3-5-------------------| x4
A|--0-3-5-6-0-3-5-------------------|
D|--0-3-5-6-0-3-5-------------------|


Bridge [2:49]
E|---------------------------------------------------|
B|---------------------------------------------------|
G|---------------------------------------------------|
D|--0-0-0-1-2-3-0-0-0-1-2-3-0-0-0-1-2-3-3-3-3-2-3-1--| x3
A|--0-0-0-1-2-3-0-0-0-1-2-3-0-0-0-1-2-3-3-3-3-2-3-1--|
D|--0-0-0-1-2-3-0-0-0-1-2-3-0-0-0-1-2-3-3-3-3-2-3-1--|

For the 4th time play this...
E|-------------------------------------------|
B|-------------------------------------------|
G|-------------------------------------------|
D|--0-0-0-1-2-3-0-0-0-1-2-3-0-0-0-1-2-3-3----| 
A|--0-0-0-1-2-3-0-0-0-1-2-3-0-0-0-1-2-3-3----|
D|--0-0-0-1-2-3-0-0-0-1-2-3-0-0-0-1-2-3-3----|


End bit [4:09]
E|---------------------|
B|---------------------|
G|---------------------|      Listen to song for timing.
D|--0------------------| x8
A|--0------------------|
D|--0------------------|
 p.m...

Tap to rate this tab
# A B C D E F G H I J K L M N O P Q R S T U V W X Y Z