Song name
# A B C D E F G H I J K L M N O P Q R S T U V W X Y Z

Tevin Campbell - Eye To Eye I2i tab

=============================================================================
                         I2I-Tevin Campbell (A Goofy Movie)
=============================================================================
                          Tabbed By:Clinton Edward Jones

This is my first tab. Listen to the song and you'll get it.
Questions, comments, trolling--xbonesyx@hotmail.com

Standard tuning

Intro
|--5--5--55-----5-5-------5--5---55----5-5----5-----|
|--5--5--55-----5-5-------5--5---55----7-7----5-----|
|--6--6--77-----7-7-------6--6---77----7-7----6-----|
|--7--7--77-----7-7-------7--7---77----7-7----7-----|
|--7--7--55-----5-5-------7--7---55----5-5----7-----|
|--5--5--55-----5-5-------5--5---55-----------5-----|

|-17b~/---14h15h17-15-14---12h14---12-12~/----------------------| 
|---------------------------------------------------------------|
|---------------------------------------------------------------|
|---------------------------------------------------------------|
|---------------------------------------------------------------|
|---------------------------------------------------------------|

Verse
|--5--5--55-----5-5-------5--5---55----5-5----5-----|
|--5--5--55-----5-5-------5--5---55----7-7----5-----|
|--6--6--77-----7-7-------6--6---77----7-7----6-----|
|--7--7--77-----7-7-------7--7---77----7-7----7-----|
|--7--7--55-----5-5-------7--7---55----5-5----7-----|
|--5--5--55-----5-5-------5--5---55-----------5-----|

Pre-Chorus
|(3)----2~------5-5----55------5-5----5-------------(3)-----2~-------7~----|
|-3~----3~------5-5----55------7-7----5--------------3~-----3~-------9~----|
|-x-----2~------6-6----77------7-7----6--------------x------2~-------7~----|
|-x-----x-------7-7----77------7-7----7--------------x------x--------9~----|
|-2~----x-------7-7----55------5-5----7--------------2~-----x--------7~----|
|-3~----x-------5-5----55-------------5--------------3~-----x--------x-----|

Chorus
|-5--5-------2----2--5--5---5--------2---5---7---2-------5--------5---|
|-5--7-------2----2--7--5---7--------2---7---9---2-------7--------5---|
|-6--7---1---2----2--7--7---7--------2---7---7---2-------7----1---6---|
|-7--7---2---4----4--7--7---7--------4---7---9---4-------7----2---7---|
|-7--5---2---4----4--5--5---5--------4---5---7---4-------5----2---7---|
|-5------0---2----2-----5------------2-------x---2------------0---5---|

Bridge
|-------------------------------------------------|
|-------------------------------------------------|
|-14---11h12h14p12--------------------------------|
|--------------------11b--------------------------|
|-----------------------------12-10-12~/----------|
|-------------------------------------------------|

|-17b~/---14h15h17-15-14---12h14---12-12~/----------------------|
|---------------------------------------------------------------|
|---------------------------------------------------------------|
|---------------------------------------------------------------|
|---------------------------------------------------------------|
|---------------------------------------------------------------|

SOLO!!!
|----------------16h17~--17~--16-17-19-17--14/17-15----------------------|
|--------16h17h19----------------------------------15b15-----------------|
|16h18h19-----------------------------------------------17p16-14----14~--|
|----------------------------------------------------------------16------|
|------------------------------------------------------------------------|
|------------------------------------------------------------------------|

|-------------------17------------17p14--17p14--17p14--17p14--17p14--17p14--|
|--------------------------------------17-----17-----17-----17-----17-----17|
|12/14-14-14--14-16---16-14-16-14b~-----------------------------------------|
|-----------16--------------------------------------------------------------|
|---------------------------------------------------------------------------|
|---------------------------------------------------------------------------|

|--19b----------------------------------------------------|
|---------------------------------------------------------|
|---------------------------------------------------------|
|---------------------------------------------------------|
|---------------------------------------------------------|
|---------------------------------------------------------|

Bridge 2
|--5---5---5-------------|----------------|-(3)-----7~-------2~----|
|--5---5---5-------------|----------------|--3~-----9~-------2~----|
|--6---7---6-STOP!-------|--main riff-----|--x------7~-------3~----|
|--7---7---7-------------|----------------|--x------9~-------2~----|
|--7---5---7-------------|----------------|--2~-----7~-------4~----|
|--5---5---5-------------|----------------|--3~--------------2~----|

Chorus (KEY CHANGE)
|--2-------2---4------4-------2---------4-------2---4----------2---2---|
|--4-------2---4------4-------5---------4-------2---4----------2---4---|
|--4---1---3---4------4---1---4---1-----4---1---3---4-------1--3---4---|
|--4---2---4---6------6---2---2---2-----6---2---2---6-------2--4---4---|
|--2---2---4---6------6---2---2---2-----6---2---4---6-------2--4---2---|
|------0---2---4------4---0-------0-----4---0---2---4-------0--2-------|

Fill
|-----------------------------------------------------------------------|
|----------------------------------------14b-12-----12-16-12------------|
|10bp8--8---------------------------------------14----------------------|
|-----10-10p8h10h8---8--------------------------------------------------|
|------------------10--10-8-10------------------------------------------|
|------------------------------10p8p7/----------------------------------|

Outro
|--7--7--77-----7-7-------7--7---77----7-7----7-----|
|--7--7--77-----7-7-------7--7---77----9-9----7-----|
|--8--8--99-----9-9-------8--8---99----9-9----8-----|
|--9--9--99-----9-9-------9--9---99----9-9----9-----|
|--9--9--77-----7-7-------9--9---77----7-7----9-----|
|--7--7--77-----7-7-------7--7---77-----------7-----|
Tap to rate this tab
# A B C D E F G H I J K L M N O P Q R S T U V W X Y Z