Song name
# A B C D E F G H I J K L M N O P Q R S T U V W X Y Z

Tex Ritter - High Noon tab

Help us improve GuitareTab! Take a short survey!
ok i couldn't quite figure out on part but i think i got most of it.
p=pick
*= palm mute
+=pull off
this is my first tab so it might not be 100% correct and i will be editting it in the 
i just have to figure out more of guitar two's parts

eb-----------------------------------------------------------------------|
Bb-----------------------------------------------------------------------|
Gb----------------------------7p-9h-10p----------------------------------| x8
Db-0~----------------000------------------000-000---8+-7+-5+-------------|
Ab-0~----------------000------------------000-000------------------------|
Db-0~----------------000------------------000-000------------------------|
                     ***                  *** ***
i couldn't figure out guitar twos intro.

eb-------------------------------------------------------------------------|
Bb-------------------------------------------------------------------------|
Gb-------------------------------------------------------------------------|
Db-0--000--7-10-101010-7-8-8888888888--3-0-000--7-10-101010-7-8-8888888888-|
Ab-0--000--7-10-101010-7-8-8888888888--3-0-000--7-10-101010-7-8-8888888888-|
Db-0--000--7-10-101010-7-8-8888888888--3-0-000--7-10-101010-7-8-8888888888-|
      ***        * * *     **********      ***        * * *     **********
eb------------------------------------------------------------------------|
Bb------------------------------------------------------------------------|
Gb------------------------------------------------------------------------|
Db--3---0-----------------------------------------------------------------|
Ab--3---0-----------------------------------------------------------------|
Db--3---0-----------------------------------------------------------------|
    slight pause before open
same thing for second part but no palm mutes

eb-----------------------------------------------------------------------|
Bb-----------------------------------------------------------------------|
Gb-----------------------------------------------------------------------|
Db-0-00000---0-00000-----------------------------------------------------| x6
Ab-0-00000---0-00000-----------------------------------------------------|
Db-0-00000---0-00000-----------------------------------------------------|
     *****     *****
chorus
eb-----------------------------------------------------------------------|
Bb-------6--66----------------------6-66---------------------------------|
Gb-------9--99----------------------9-99--14-1414-12-121212--------------| x2
Db-0-----------8-88-10-101010--0-----------------------------------------|
Ab-0-----------8-88-10-101010--0----------12-1212-10-121212--------------|
Db-0-----------8-88-10-101010--0-----------------------------------------|
do not repeat this part ath the end of the song
eb-----------------------------------------------------------------------|
Bb-----------------------------------------------------------------------|
Gb-----------------------------------------------------------------------|
Db--12-121212121212121212-10-101010101010101010-5-555555555-8-888888888--|
Ab--12-121212121212121212-10-101010101010101010-5-555555555-8-888888888--|
Db--12-121212121212121212-10-101010101010101010-5-555555555-8-888888888--|
        * * * * * * ** *      * * * * * * * * *   *********   *********
eb-----------------------------------------------------------------------|
Bb-----------------------------------------------------------------------|
Gb-----------------------------------------------------------------------|
Db--12-121212121212121212-10-101010101010101010-5-555555555-8------------|
Ab--12-121212121212121212-10-101010101010101010-5-555555555-8------------|
Db--12-121212121212121212-10-101010101010101010-5-555555555-8------------|
      * * * * * * ** *      * * * * * * * * *   *********
guitar one
eb-------------------------------------------------------------------------|
Bb-------------------------------------------------------------------------|
Gb-9/10-10\9-9/12-12\10-10/14-14\12-12/15-15\14-14-14-14-14----------------|
Db-------------------------------------------------------------------------|x2
Ab-7/8--8\7--7/10-10\8---8/12-12\10-10/13-13\12-12-12-12-12----------------|
Db-------------------------------------------------------------------------|
guitar two
eb-----------------------------------------------------------------------|
Bb-----------------------------------------------------------------------|
Gb-----------------------------------------------------------------------|
Db--1212-121212-12-1010-101010-10-55-555-5-88-888------------------------| x2
Ab--1212-121212-12-1010-101010-10-55-555-5-88-888------------------------|
Db--1212-121212-12-1010-101010-10-55-555-5-88-888------------------------|

eb-------------------------------------------------------------------------|
Bb-------------------------------------------------------------------------|
Gb-------------------------------------------------------------------------|
Db-000-0---00--00--000-0---00--00------------------------------------------|
Ab-000-0---00--00--000-0---00--00------------------------------------------|
Db-000-0---00--00--000-0---00--00------------------------------------------|
   *** *   **  **  *** *   **  **
guitar one
eb-----------------------------------------------------------------------|
Bb-----------------------------------------------------------------------|
Gb-----------------------------------------------------------------------|
Db-----3+-5+-7+-5+-3+-5+-3+-2+-------------------------------------------|x2
Ab-----------------------------------------------------------------------|
Db-----------------------------------------------------------------------|

eb-----------------------------------------------------------------------|
Bb-----------------------------------------------------------------------|
Gb-----------------------------------------------------------------------|
Db-0-000000-2p-3h+0-------3----------------------------------------------|
Ab-0-000000---------3p-5h-3----------------------------------------------|x4
Db-0-000000---------------3----------------------------------------------|
     ******

repeeat chorus except last part marked

play this instead
eb-------------------------------------------------------------------------|
Bb-------------------------------------------------------------------------|
Gb-------------------------------------------------------------------------|
Db-0--0-0-0-0-0-3/5\3-0--0-0-0-0-0--3/5-8-8888-88-5-55555-55---------------|
Ab-0--0-0-0-0-0-3/5\3-0--0-0-0-0-0--3/5-8-8888-88-5-55555-55---------------|
Db-0--0-0-0-0-0-3/5\3-0--0-0-0-0-0--3/5-8-8888-88-5-55555-55---------------|
      * * * * *          * * * * *
eb-----------------------------------------------------------------------|
Bb-----------------------------------------------------------------------|
Gb-----------------------------------------------------------------------|
Db-0--0-0-0-0-0-3/5\3-0--0-0-0-0-0--3/5-8~---5~--0~----------00----------|
Ab-0--0-0-0-0-0-3/5\3-0--0-0-0-0-0--3/5-8~---5~--0~----------00----------|
Db-0--0-0-0-0-0-3/5\3-0--0-0-0-0-0--3/5-8~---5~--0~----------00----------|
      * * * * *          * * * * *
Related for High Noon tab