Guitaretab - guitar tabs
Song name
# A B C D E F G H I J K L M N O P Q R S T U V W X Y Z

Texas Hippie Coalition - Pissed Off And Mad About It tab

(/) Slide Up  (\) Slide Down  (h) Hammer On  (p) Pull Off  (b) Bend (r) Release (v) Vibrato

E|--------------------------------------|
B|--------------------------------------|
G|--------------------------------------|
D|--------------------------------------|
A|--------------------------------------|
D|--0--0--1--0--0--0--3--3--5--5--3--3--|
[ Tab from: http://www.guitaretab.com/t/texas-hippie-coalition/191544.html ]
E|--------------------------------|
B|--------------------------------|
G|--------------------------------|
D|--------------------------------|
A|--------------------------------|
D|--0--0--1--0--0--0--3--0--12\5--|

E|--------------------------------------|
B|--------------------------------------|
G|--------------------------------------|
D|--------------------------------------|
A|--------------------------------------|
D|--0--0--1--0--0--0--3--3--5--5--3--3--|

E|----------------------------|
B|----------------------------|
G|----------------------------|
D|----------------------------|
A|---------------------b3-----|
D|--0--0--0--0--0--3--5----3--|

thcoutlaw.com
Related for Pissed Off And Mad About It tab
Pissed Off And Mad About It chords by Texas Hippie Coalition