Song name
# A B C D E F G H I J K L M N O P Q R S T U V W X Y Z

Texas Hippie Coalition - Leaving tab

(/) Slide Up  (\) Slide Down  (h) Hammer On  (p) Pull Off  (b) Bend (r) Release (v) Vibrato

This is kinda the outline of the song, to make it sound cooler, i throw a few extra 
bends" and squeals, dimebag style... GIVE IT A SHOT!=] Enjoy it.

E|-----------0--------------------0--------------------0--------------------|
B|-----3--------3-----3-----3--------3-----3-----3--------3-----3-----------|
G|--------2--------2-----------2--------2-----------2--------2--------------|
D|--0-----------------------------------------------------------------------|
A|-----------------------4--------------------3-----------------------------|
D|--------------------------------------------------------------------------|

E|--------------------|
B|--------------------|
G|--------------------|
D|--------------------|
A|--3--3--3--3--5--5--|
D|--3--3--3--3--5--5--|

E|---------------------------------------------------------------------|
B|---------------------------------------------------------------------|
G|---------------------------------------------------------------------|
D|---------------------------------------------------------------------|
A|--0--0--0--0--0--10--10--10--10--0--3--5--5--3--5--3--6--5--3--5--3--|
D|--0--0--0--0--0--10--10--10--10--0--3--5--5--3--5--3--6--5--3--5--3--|

"Wheeennn she's masturbating....."

E|--------------------------|
B|--------------------------|
G|--------------------------|
D|--------------------------|
A|--------3-----------------|
D|--3--5-----5--4--3--4--3--|
Tap to rate this tab
# A B C D E F G H I J K L M N O P Q R S T U V W X Y Z