Song name
# A B C D E F G H I J K L M N O P Q R S T U V W X Y Z

Texas Hippie Coalition - No Shame tab

Band: Texas Hippie Coalition
Song: No Shame
Album: Pride of Texas
Genre: Southern Metal, Red Dirt Metal
Tuning: Drop C

Verse
D-----------------------------------|
A-----------------------------------|
F-----------------------------------|
C-----------------------------------|
G-----------------------------------|
C-1-0---0---0-1-0---0---0-1-0-1-3---|
|------------PM ALL-----------------|

Chorus
D----------------------------------------|
A----------------------------------------|
F----------------------------------------|
C-6-----------3-----------0--------------|
G-6-----------3-----------0--------------|
C-6-----------3-----------0--------------|

That's it except for the solo. Extremely easy. I'll tab the solo if I get requests.
Tap to rate this tab
# A B C D E F G H I J K L M N O P Q R S T U V W X Y Z