Song name
# A B C D E F G H I J K L M N O P Q R S T U V W X Y Z

Texas Hippie Coalition - Leaving tab

                 Texas hippie coalition-Leaving
                   tabbed by Mischa Bovendeert


                    Getcha Dirt right here!!

intro and verse

|--------0-------------0-------------0-------|
|----3-----3-------3-----3---3---3-----3-----|
|------2-----2-------2-----2-------2-----2---|
|--0-----------0---------------------------0-|
|----------------4-------------3-------------|
|--------------------------------------------|


|----------------|
|----------------|
|----------------|
|--3-3-3-3-\5--5-|
|--3-3-3-3-\5--5-|
|--3-3-3-3-\5--5-|
   . . . .  let ring~

yeah-he, yeah-hellyeah!!!!


|-------------------------------------------|
|-------------------------------------------|
|-------------------------------------------|    watch the palm muting here and
|0-0-0-10-10-0-5--/3---5-3-6-5-3-5-3-5------|     and you'll Git R done!
|0-0-0-10-10-0-5--/3---5-3-6-5-3-5-3-5------|
|0-0-0-10-10-0-5--/3---5h3p6h5p3h5p3-5------|
     .       .         . .   . . . .

Verse

|--------0-------------0-------------0-------|
|----3-----3-------3-----3---3---3-----3-----|
|------2-----2-------2-----2-------2-----2---|
|--0-----------0---------------------------0-|
|----------------4-------------3-------------|
|--------------------------------------------|


|----------------|
|----------------|
|----------------|
|--3-3-3-3-\5--5-|
|--3-3-3-3-\5--5-|
|--3-3-3-3-\5--5-|
   . . . .  let ring~


 Chorus


|--------------------------------------|
|--------------------------------------|
|--------------------------------------|
|0-0-0-10-10-0-5--/3---5-3-6-5-3-5-3-5-|
|0-0-0-10-10-0-5--/3---5-3-6-5-3-5-3-5-|
|0-0-0-10-10-0-5--/3---5h3p6h5p3h5p3-5-|
     .       .         . .   . . . .

verse

|--------0-------------0-------------0-------|
|----3-----3-------3-----3---3---3-----3-----|
|------2-----2-------2-----2-------2-----2---|
|--0-----------0---------------------------0-|
|----------------4-------------3-------------|
|--------------------------------------------|


|----------------|
|----------------|
|----------------|
|--3-3-3-3-\5--5-|
|--3-3-3-3-\5--5-|
|--3-3-3-3-\5--5-|
   . . . .  let ring~


Chorus


|--------------------------------------|
|--------------------------------------|
|--------------------------------------|
|0-0-0-10-10-0-5--/3---5-3-6-5-3-5-3-5-|
|0-0-0-10-10-0-5--/3---5-3-6-5-3-5-3-5-|
|0-0-0-10-10-0-5--/3---5h3p6h5p3h5p3-5-|
     .       .         . .   . . . .


and when, she's masturbating 02:00
|------------------------------------|
|------------------------------------|
|------------------------------------|
|----5-5---5-5-0---------------------|
|----3-3---5-5-0-----2-3-2-3-2-3-----|
|--0-----0-5-5-0-3-5-------------3-0-| play this 6 times, then end on:

                                        --0----------------------------|
                                        --3----------------------------|
                                        --2----------------------------|
  last time end on open chord           --0----------------------------|
                                        --0----------------------------|







Solo kicks in here 2:43


Based on 13th position pentatonic:


|--------------------------------10-13-|
|--------------------------10-13-------|
|--------------------10-12-------------|
|--------------10-12-------------------|
|--------10-12-------------------------|
|--12-15-------------------------------|


Solo start by bending 13th string on b string and then Coop taps with the pick at fret 
17 while holding the bend.

then goes into double stops.

I will tab out the solo later.




and when, she's bathing

|------------------------------------|
|------------------------------------|
|------------------------------------|
|----5-5---5-5-0---------------------|
|----3-3---5-5-0-----2-3-2-3-2-3-----|
|--0-----0-5-5-0-3-5-------------3-0-| play this 6 times, then end on:

                                        --0----------------------------|
                                        --3----------------------------|
                                        --2----------------------------|
  last time end on open chord           --0----------------------------|
                                        --0----------------------------|


Back to chorus:


|----------------------------------------------|
|----------------------------------------------|
|----------------------------------------------|   C'mon tear it a fresh one, and test
|0-0-0-10-10-0-5--/3---5-3-6-5-3-5-3-5---------|        positive!! THC babeh!
|0-0-0-10-10-0-5--/3---5-3-6-5-3-5-3-5---------|
|0-0-0-10-10-0-5--/3---5h3p6h5p3h5p3-5---------|
     .       .         . .   . . . .



Will upload the cover and other works here:


http://www.youtube.com/user/333Dirtbag333
Tap to rate this tab
 
# A B C D E F G H I J K L M N O P Q R S T U V W X Y Z