Song name
# A B C D E F G H I J K L M N O P Q R S T U V W X Y Z

Texas In July - Show Some Pride tab

http://www.myspace.com/texasinjuly

I'm sorry that it isn't the neatest tab, but it is right.

Texas in July

Show Some Pride

D  :-----------------|-----------------|-----------------|-----------------|
A  :-----------------|10-8-6-8-6-------|-----------------|10-8-6-8-6-------|
F  :----------9-10-7-|-----------9-7-9-|----------9-10-7-|-----------9-7-9-|
C  :5-7-7-5-7--------|-----------------|5-7-7-5-7--------|-----------------|
G  :-----------------|-----------------|-----------------|-----------------|
C  :-----------------|-----------------|-----------------|-----------------|

D  :-----------------|-----------------|-----------------|-----------------|
A  :-----------------|10-8-6-8-6-------|-----------------|10-8-6-8-6-------|
F  :----------9-10-7-|-----------9-7-9-|----------9-10-7-|-----------9-7-9-|
C  :5-7-7-5-7--------|-----------------|5-7-7-5-7--------|-----------------|
G  :-----------------|-----------------|-----------------|-----------------|
C  :-----------------|-----------------|-----------------|-----------------|

D  :-----------------|-----------------|-----------------|-----------------|
A  :-----------------|10-8-6-8-6-------|-----------------|10-8-6-8-6-------|
F  :----------9-10-7-|-----------9-7-9-|----------9-10-7-|-----------9-7-9-|
C  :5-7-7-5-7--------|-----------------|5-7-7-5-7--------|-----------------|
G  :-----------------|-----------------|-----------------|-----------------|
C  :-----------------|-----------------|-----------------|-----------------|

D  :-----------------|-----------------|-----------------|-----------------|
A  :-----------------|10-8-6-8-6-------|-----------------|10-8-6-8-6-------|
F  :----------9-10-7-|-----------9-7-9-|----------9-10-7-|-----------9-7-9-|
C  :5-7-7-5-7--------|-----------------|5-7-7-5-7--------|-----------------|
G  :-----------------|-----------------|-----------------|-----------------|
C  :-----------------|-----------------|-----------------|-----------------|

D  :-----------------|-----------------|-----------------|
A  :-----------------|10-8-6-8-6-------|-----------------|
F  :----------9-10-7-|-----------9-7-9-|----------9-10-7-|
C  :5-7-7-5-7--------|-----------------|5-7-7-5-7--------|
G  :-----------------|-----------------|-----------------|
C  :-----------------|-----------------|-----------------|

D  :---------------------|-----------------|-----------------|
A  :10-8-6-8-8-10-8------|-----------------|10-8-6-8-6-------|
F  :----------------10-9-|----------9-10-7-|-----------9-7-9-|
C  :---------------------|5-7-7-5-7--------|-----------------|
G  :---------------------|-----------------|-----------------|
C  :---------------------|-----------------|-----------------|

D  :-----------------|---------------------|-----------------|
A  :-----------------|10-8-6-8-8-10-8------|-----------------|
F  :----------9-10-7-|----------------10-9-|----------9-10-7-|
C  :5-7-7-5-7--------|---------------------|5-7-7-5-7--------|
G  :-----------------|---------------------|-----------------|
C  :-----------------|---------------------|-----------------|

D  :-----------------|-----------------|---------------------|
A  :10-8-6-8-6-------|-----------------|10-8-6-8-8-10-8------|
F  :-----------9-7-9-|----------9-10-7-|----------------10-9-|
C  :-----------------|5-7-7-5-7--------|---------------------|
G  :-----------------|-----------------|---------------------|
C  :-----------------|-----------------|---------------------|

D  :-----------------|-----------------|-----------------|
A  :-----------------|10-8-6-8-6-------|-----------------|
F  :----------9-10-7-|-----------9-7-9-|----------9-10-7-|
C  :5-7-7-5-7--------|-----------------|5-7-7-5-7--------|
G  :-----------------|-----------------|-----------------|
C  :-----------------|-----------------|-----------------|

D  :---------------------|----------------|----------------|
A  :10-8-6-8-8-10-8------|----------------|----------------|
F  :----------------10-9-|----------------|----------------|
C  :---------------------|----------------|----------------|
G  :---------------------|0---------------|-----8----------|
C  :---------------------|0---------------|-----8----------|

D  :-----------------|----------------|----------------|-----------------|
A  :-----------------|----------------|----------------|-----------------|
F  :-----------------|----------------|----------------|-----------------|
C  :-----------------|----------------|--5-------------|-----------------|
G  :--10-------3----0|----8---5-----3-|--------------8-|--------------10-|
C  :--10-------3----0|--0---0---0-0---|0---0-0-7-5-7-8-|--------------10-|

D  :----------------|----------------|----------------|-----------------|
A  :----------------|----------------|----------------|-----------------|
F  :----------------|----------------|----------------|-----------------|
C  :----------------|----------------|-5--------------|-----------------|
G  :------3-------0-|---8---5-----3--|-------------8--|-8-8---8-8-8-10--|
C  :------3-------0-|-0---0---0-0---0|---0-0-7-5-7-8--|-8-8---8-8-8-10--|

D  :------------------|----------------|----------------|-----------------|
A  :------------------|----------------|----------------|-----------------|
F  :------------------|----------------|----------------|-----------------|
C  :------------------|----------------|5---------------|-----------------|
G  :-10-10-3---3-3-0--|--8---5-----3---|------------8---|8-8---8-8-8-10---|
C  :-10-10-3---3-3-0--|0---0---0-0---0-|--0-0-7-5-7-8---|8-8---8-8-8-10---|

D  :------------------|----------------|----------------|------------------|
A  :------------------|----------------|----------------|------------------|
F  :------------------|----------------|----------------|------------------|
C  :------------------|---------------5|----------------|------------------|
G  :10-10-3---3-3-0---|-8---5-----3----|-----------8---8|-8---8-8-8-10---10|
C  :10-10-3---3-3-0--0|---0---0-0---0--|-0-0-7-5-7-8---8|-8---8-8-8-10---10|

D  :-----------------|----------------|----------------|------------------|
A  :-----------------|----------------|----------------|------------------|
F  :-----------------|----------------|----------------|------------------|
C  :-----------------|--------------5-|----------------|------------------|
G  :-10-3---3-3-0----|8---5-----3-----|----------8---8-|8---8-8-8-10---10-|
C  :-10-3---3-3-0--0-|--0---0-0---0---|0-0-7-5-7-8---8-|8---8-8-8-10---10-|

D  :-----------------|----------------|-----------------|-----------------|
A  :-----------------|----------------|-----------------|-----------------|
F  :-----------------|----------------|-----------------|-----------------|
C  :-----------------|-------------5--|---------------10|-8--------------8|
G  :10-3---3-3-0----8|---5-----3------|---------8---8---|---10-8---5---5--|
C  :10-3---3-3-0--0--|-0---0-0---0---0|-0-7-5-7-8---8---|----------5---5--|

D  :----------------|----------------|-----------------|-----------------|
A  :----------------|----------------|-----------------|-----------------|
F  :----------------|----------------|-----------------|-----------------|
C  :-5--------------|------------5---|--------------10-|8--------------8-|
G  :---8-7-5-0----8-|--5-----3-------|--------8---8----|--10-8---5---5---|
C  :---------0--0---|0---0-0---0---0-|0-7-5-7-8---8----|---------5---5---|

D  :----------------|------------------|----------------|----------------|
A  :----------------|------------------|----------------|----------------|
F  :----------------|------------------|----------------|----------------|
C  :5---------------|10-8--------------|8-5-------------|----------------|
G  :--8-7-5---8---8-|-----10-8---5---5-|----8-7-5---0--0|----0--0----0--0|
C  :----------8---8-|------------5---5-|------------0--0|----0--0----0--0|

D  :----------------|----------------|----------------|----------------|
A  :----------------|----------------|----------------|----------------|
F  :----------------|----------------|----------------|----------------|
C  :----------------|----------------|----------------|----------------|
G  :----0--0----0--0|----------------|0-0---0-0---0-0-|--0-0-0-0---0-0-|
C  :----0--0----0--0|----------------|0-0---0-0---0-0-|--0-0-0-0---0-0-|

D  :----------------|----------------|----------------|----------------|
A  :----------------|----------------|----------------|----------------|
F  :----------------|----------------|----------------|----------------|
C  :----------------|----------------|----------------|----------------|
G  :-0-0---0-0-0-0--|0-0---0-0---0-0-|--0-0---0-0---0-|0---0-0-0-0--0-0|
C  :-0-0---0-0-0-0--|0-0---0-0---0-0-|--0-0---0-0---0-|0---0-0-0-0--0-0|

D  :----------------|----------------|----------------|----------------|
A  :----------------|----------------|----------------|----------------|
F  :----------------|----------------|----------------|----------------|
C  :----------------|----------------|----------------|----------------|
G  :---0-0---0-0---0|-0---0-0---0-0-0|-0---0-0--0-0---|0-0-0-0--0-0---0|
C  :---0-0---0-0---0|-0---0-0---0-0-0|-0---0-0--0-0---|0-0-0-0--0-0---0|

D  :----------------|----------------|----------------|----------------|
A  :----------------|----------------|----------------|----------------|
F  :----------------|----------------|----------------|----------------|
C  :----------------|----------------|----------------|----------------|
G  :-0---0-0---0-0--|-0-0---0-0---0-0|-0-0--0-0---0-0-|--0-0---0-0---0-|
C  :-0---0-0---0-0--|-0-0---0-0---0-0|-0-0--0-0---0-0-|--0-0---0-0---0-|

D  :----------------|----------------|----------------|----------------|
A  :----------------|----------------|----------------|----------------|
F  :----------------|----------------|----------------|----------------|
C  :----------------|----------------|----------------|----------------|
G  :0---0-0-0-0---0-|0--0-0---0-0-0-0|--0-0---0-0---0-|0---0-0---0-0-0-|
C  :0---0-0-0-0---0-|0--0-0---0-0-0-0|--0-0---0-0---0-|0---0-0---0-0-0-|

D  :----------------|----------------|----------------|----------------|
A  :----------------|----------------|----------------|----------------|
F  :----------------|----------------|----------------|----------------|
C  :----------------|----------------|----------------|----------------|
G  :0---0-0--0-0---0|-0-0-0--0-0---0-|0---0-0---0-0---|0-0---0-0---0-0-|
C  :0---0-0--0-0---0|-0-0-0--0-0---0-|0---0-0---0-0---|0-0---0-0---0-0-|

D  :----------------|----------------|----------------|----------------|
A  :----------------|----------------|----------------|----------------|
F  :----------------|----------------|----------------|----------------|
C  :----------------|----------------|----------------|----------------|
G  :0-0---0-0---0-0-|--0-0---0-0---0-|0-0-0---0-0---0-|0---0-0-0-0---0-|
C  :0-0---0-0---0-0-|--0-0---0-0---0-|0-0-0---0-0---0-|0---0-0-0-0---0-|

D  :----------------|----------------|----------------|----------------|
A  :----------------|----------------|----------------|----------------|
F  :----------------|----------------|----------------|----------------|
C  :----------------|----------------|----------------|----------------|
G  :0---0-0---0-0---|0-0---0-------0-|------------0---|0---0-----------|
C  :0---0-0---0-0---|0-0---1-------1-|------------1---|1---1-----------|

D  :----------------|----------------|----------------|----------------|
A  :----------------|----------------|----------------|----------------|
F  :----------------|----------------|----------------|----------------|
C  :----------------|----------------|----------------|----------------|
G  :---0---0---0----|---0------------|-------0---0---0|--------------0-|
C  :---1---1---1----|---1------------|-------1---1---1|--------------1-|

D  :----------------|----------------|----------------|----------------|
A  :----------------|----------------|----------------|----------------|
F  :----------------|----------------|----------------|----------------|
C  :----------------|----------------|----------------|----------------|
G  :--0---0-------0-|----------------|------0---0---0-|-------------0--|
C  :--1---1-------1-|----------------|------0---0---0-|-------------0--|

D  :----------------|----------------|----------------|----------------|
A  :----------------|----------------|----------------|----------------|
F  :----------------|----------------|----------------|----------------|
C  :----------------|----*-------*---|----------------|----------------|
G  :-0---0-------0--|----5-------5---|----0---0---0---|-----------0---0|
C  :-0---0-------0--|----------------|----0---0---0---|-----------0---0|

D  :----------------|----------------|-----------------|----------------|
A  :----------------|----------------|-----------------|----------------|
F  :----------------|----------------|-----------------|----------------|
C  :----------------|--------7-3-0---|----8-7-8-10-8-7-|--------7-3-0---|
G  :---0-------0----|--5-8-----------|-----------------|8-5-8-----------|
C  :---0-------0----|------0-------0-|0-0--------------|------0-------0-|

D  :-------------------|----------------|-----------------|----------------|
A  :-------------------|----------------|-----------------|----------------|
F  :-------------------|----------------|-----------------|----------------|
C  :--10-8-7----8-7----|--------7-3-0---|----8-7-8-10-8-7-|--------7-3-0---|
G  :---------10-----10-|8-5-8-----------|-----------------|8-5-8-----------|
C  :0------------------|------0-------0-|0-0--------------|------0-------0-|

D  :-------------------|----------------|-----------------|----------------|
A  :-------------------|----------------|-----------------|----------------|
F  :-------------------|----------------|-----------------|----------------|
C  :--10-8-7----8-7----|--------7-3-0---|----8-7-8-10-8-7-|--------7-3-0---|
G  :---------10-----10-|8-5-8-----------|-----------------|8-5-8-----------|
C  :0------------------|------0-------0-|0-0--------------|------0-------0-|

D  :-------------------|----------------|-----------------|----------------|
A  :-------------------|----------------|-----------------|----------------|
F  :-------------------|----------------|-----------------|----------------|
C  :--10-8-7----8-7----|--------7-3-0---|----8-7-8-10-8-7-|--------7-3-0---|
G  :---------10-----10-|8-5-8-----------|-----------------|8-5-8-----------|
C  :0------------------|------0-------0-|0-0--------------|------0-------0-|

D  :-------------------|----------------|-----------------|----------------|
A  :-------------------|----------------|-----------------|----------------|
F  :-------------------|----------------|-----------------|----------------|
C  :--10-8-7----8-7----|--------7-3-0---|----8-7-8-10-8-7-|--------7-3-0---|
G  :---------10-----10-|8-5-8-----------|-----------------|8-5-8-----------|
C  :0------------------|------0-------0-|0-0--------------|------0-------0-|

D  :-------------------|----------------|-----------------|----------------|
A  :-------------------|----------------|-----------------|----------------|
F  :-------------------|----------------|-----------------|----------------|
C  :--10-8-7----8-7----|--------7-3-0---|----8-7-8-10-8-7-|--------7-3-0---|
G  :---------10-----10-|8-5-8-----------|-----------------|8-5-8---------5-|
C  :0------------------|------0-------0-|0-0--------------|------0-------5-|

D  :----------------|----------------|----------------|----------------|
A  :----------------|----------------|----------------|----------------|
F  :----------------|----------------|----------------|----------------|
C  :----------------|----------9-----|----------------|-9-----------8--|
G  :-5--3--7--5--3--|7--5--3---9-----|----------------|-9-----------8--|
C  :-5--3--7--5--3--|7--5--3---9-----|----------------|-9-----------8--|

D  :----------------|----------------|----------------|----------------|
A  :----------------|----------------|----------------|----------------|
F  :----------------|----------------|----------------|----------------|
C  :---------9------|----------------|9------------8--|------9-9-9-9-9-|
G  :---------9------|----------------|9------------8--|------9-9-9-9-9-|
C  :---------9------|----------------|9------------8--|------9-9-9-9-9-|

D  :----------------|----------------|----------------|----------------|
A  :----------------|----------------|----------------|----------------|
F  :----------------|----------------|----------------|----------------|
C  :9-9-9-9-9-9-9-9-|9-9-9-9-9-9-9-9-|9-9-9-8-8-8-8-8-|8-8-8-9-9-9-9-9-|
G  :9-9-9-9-9-9-9-9-|9-9-9-9-9-9-9-9-|9-9-9-8-8-8-8-8-|8-8-8-9-9-9-9-9-|
C  :9-9-9-9-9-9-9-9-|9-9-9-9-9-9-9-9-|9-9-9-8-8-8-8-8-|8-8-8-9-9-9-9-9-|

D  :----------------|----------------|----------------|
A  :----------------|----------------|----------------|
F  :----------------|----------------|----------------|
C  :9-9-9-9-9-9-9-9-|9-9-9-9-9-9-9-9-|9-9-9-8-8-8-8-8-|
G  :9-9-9-9-9-9-9-9-|9-9-9-9-9-9-9-9-|9-9-9-8-8-8-8-8-|
C  :9-9-9-9-9-9-9-9-|9-9-9-9-9-9-9-9-|9-9-9-8-8-8-8-8-|

D  :------12-11-14-12-11-|14-12-11-14-12-11-14-12-|11-14------------------|
A  :---------------------|------------------------|--------11-12-14-11-12-|
F  :---------------------|------------------------|-----------------------|
C  :8-8-8----------------|------------------------|-----------------------|
G  :8-8-8----------------|------------------------|-----------------------|
C  :8-8-8----------------|------------------------|-----------------------|

D  :------------------------|--------12-11-14-12-11-|
A  :14-11-12-14-11-12-14-12-|11---------------------|
F  :------------------------|---11------------------|
C  :------------------------|-----------------------|
G  :------------------------|-----------------------|
C  :------------------------|-----------------------|

D  :14-12-11-14-12-11-14-12-|11-14------------------|
A  :------------------------|--------11-12-14-11-12-|
F  :------------------------|-----------------------|
C  :------------------------|-----------------------|
G  :------------------------|-----------------------|
C  :------------------------|-----------------------|

D  :------------------------|--------12-11-14-12-11-|
A  :14-11-12-14-11-12-14-12-|11---------------------|
F  :------------------------|---11------------------|
C  :------------------------|-----------------------|
G  :------------------------|-----------------------|
C  :------------------------|-----------------------|

D  :14-12-11-14-12-11-14-12-|11-14------------------|
A  :------------------------|--------11-12-14-11-12-|
F  :------------------------|-----------------------|
C  :------------------------|-----------------------|
G  :------------------------|-----------------------|
C  :------------------------|-----------------------|

D  :------------------------|--------12-11-14-12-11-|
A  :14-11-12-14-11-12-14-12-|11---------------------|
F  :------------------------|---11------------------|
C  :------------------------|-----------------------|
G  :------------------------|-----------------------|
C  :------------------------|-----------------------|

D  :14-12-11-14-12-11-14-12-|11-14------------------|
A  :------------------------|--------11-12-14-11-12-|
F  :------------------------|-----------------------|
C  :------------------------|-----------------------|
G  :------------------------|-----------------------|
C  :------------------------|-----------------------|

D  :------------------------|------------------|----------------|
A  :14-11-12-14-11-12-14-12-|11----------------|----------------|
F  :------------------------|---11-------------|----------------|
C  :------------------------|--------9-9-9-9-9-|9-9-9-9-9-9-9-9-|
G  :------------------------|--------9-9-9-9-9-|9-9-9-9-9-9-9-9-|
C  :------------------------|--------9-9-9-9-9-|9-9-9-9-9-9-9-9-|

D  :----------------|----------------|----------------|----------------|
A  :----------------|----------------|----------------|----------------|
F  :----------------|----------------|----------------|----------------|
C  :9-9-9-9-9-9-9-9-|9-9-9-8-8-8-8-8-|8-8-8-9-9-9-9-9-|9-9-9-9-9-9-9-9-|
G  :9-9-9-9-9-9-9-9-|9-9-9-8-8-8-8-8-|8-8-8-9-9-9-9-9-|9-9-9-9-9-9-9-9-|
C  :9-9-9-9-9-9-9-9-|9-9-9-8-8-8-8-8-|8-8-8-9-9-9-9-9-|9-9-9-9-9-9-9-9-|

D  :----------------|----------------|----------------|----------------|
A  :----------------|----------------|----------------|----------------|
F  :----------------|----------------|----------------|----------------|
C  :9-9-9-9-9-9-9-9-|9-9-9-8-8-8-8-8-|8-8-8-0---------|----------------|
G  :9-9-9-9-9-9-9-9-|9-9-9-8-8-8-8-8-|8-8-8-0---------|----------------|
C  :9-9-9-9-9-9-9-9-|9-9-9-8-8-8-8-8-|8-8-8-0---------|----------------|

D  :---------------------|--------------------------|------------------|
A  :---------------------|--------------------------|------------------|
F  :---------------------|--------------------------|------------------|
C  :---------------------|--------------------------|------------------|
G  :----------0-0-0-0-0-0|--0-0-0-0-0-0-0-0-0-0--0-0|-------0-0-0---0--|
C  :----------0-0-0-0-0-0|--0-0-0-0-0-0-0-0-0-0--0-0|-------0-0-0---0--|

D  :---------------------|---------------------|--------------------------|
A  :---------------------|---------------------|--------------------------|
F  :---------------------|---------------------|--------------------------|
C  :---------------------|---------------------|--------------------------|
G  :-0-0-0-0-0-0-0-0-0-0-|--------0-0-0-0-0-0--|0-0-0-0-0-0-0-0-0-0--0-0--|
C  :-0-0-0-0-0-0-0-0-0-0-|--------0-0-0-0-0-0--|0-0-0-0-0-0-0-0-0-0--0-0--|

D  :------------------|--------------------|----------------------|
A  :------------------|--------------------|----------------------|
F  :------------------|--------------------|----------------------|
C  :------------------|--------------------|----------------------|
G  :-----0-0-0---0---0|0-0-0-0-0-0-0-0-0---|------0-0-0-0-0-0--0-0|
C  :-----0-0-0---0---0|0-0-0-0-0-0-0-0-0---|------0-0-0-0-0-0--0-0|

D  :------------------------|-------------------|--------------------|
A  :------------------------|-------------------|--------------------|
F  :------------------------|-------------------|--------------------|
C  :------------------------|-------------------|--------------------|
G  :0-0-0-0-0-0-0-0--0-0----|---0-0-0---0---0-0-|0-0-0-0-0-0-0-0-----|
C  :0-0-0-0-0-0-0-0--0-0----|---0-0-0---0---0-0-|0-0-0-0-0-0-0-0-----|

D  :------------------------|----------------------|-------------------|
A  :------------------------|----------------------|-------------------|
F  :------------------------|----------------------|-------------------|
C  :------------------------|----------------------|-------------------|
G  :----0-0-0-0-0-0--0-0-0-0|0-0-0-0-0-0--0-0------|-0-0-0---0---0-0-0-|
C  :----0-0-0-0-0-0--0-0-0-0|0-0-0-0-0-0--0-0------|-0-0-0---0---0-0-0-|

D  :--------------------|----------------|
A  :--------------------|----------------|
F  :--------------------|----------------|
C  :--------------------|----------------|
G  :0-0-0-0-0-0-0-------|---0------------|
C  :0-0-0-0-0-0-0-------|---0------------|
Tap to rate this tab
# A B C D E F G H I J K L M N O P Q R S T U V W X Y Z