Song name
# A B C D E F G H I J K L M N O P Q R S T U V W X Y Z

Texas In July - Hookline And Sinner tab

Did it my ear, and i'm afraid i didn't really nailled the last part. But it's something.

Just repeat every part according to the song, you'll hear it


Tuning: Drop C

Part 1.1
|---------------------------------------------------------|
|---------------------------------------------------------|
|---------------------------------------------------------|
|-------------------------------------------5 + ----------|
|---------------------------------------------------------|
|-3h0-0-0--00-3h0-0-0----Snare2x-Kick---------------------|

Part 1.2
|-------------------------------------------------------------|------------|
|-------------------------------------------------------------|------------|
|------------------------------------------------------7----7-|------------|
|------------------------0---0--------------------------------|------------|
|------------------------0---0-------------------------5----5-|------------|
|-3h0-0-0--00-3h0-0-0----0---0----3h0-0-0--00-3h0-0-0---------|--Pickslide-|


|----------------------------------------------------------------------------------|
|----------------------------------------------------------------------------------|
|---------------------------------------------------------------5--7--5------------|
|---------------------------------------------------------------5--7--5------------|
|---------------------------------------------------------------3--5--3------------|
|-3h0-0---00-3h0------00-3h0---00000-----3h0-0---00-3h0------00-----------00000----|

Part 2, Massive<3
|---------------------------------------------------------------------------|
|---------------------------------------------------------------------------|
|---------------------------------------------------------------------------|
|-----7--------------------------------------10---8---8h7------7------------||
|---------8---8h7-----7------------------------------------10-----8-7-8-10--|
|-00----0---0------10---10-8-7-8-10-------88----8---8-----------------------|
  **    *   *                             **    *   *
|---------------------------------------------------------------------------|
|---------------------------------------------------------------------------|
|---------------------------------------------------------------------------|
|-----8---7---7h5-8-7-5---7--------3--33333--7-77777------------------------||
|-----------------------8---5-8----3--33333--7-77777------------------------|
|-55----5---5----------------------3--33333--7-77777------------------------|
 **    *   * 

Breakdown 1 Just hit the open notes in the rythem PM!

Part 4
|------------------------|
|------------------------|
|------------------------|
|-7h8h7----10-8-7--------|
|-------8----------8-7-5-|
|------------------------|  

|-----------------------------------------------------------------------|
|-----------------------------------------------------------------------|
|------------7----------------------------------------------------------|
|--------7----------7h8h7----10-8-7--------10---8---5-------------------|
|----8-------------------8----------10-----------------5s8s7----------0-|
|-00---0---0----00----------------------00----0---0-----------5-8-7-5-0-|
  **   *   *    **                      **    *   *           * * * *

Part 5 Tempo change down wards (not much)
|---------------|
|---------------|
|---------------|
|---------------|
|----------0----|
|-5-8-7-5--1----|
  * * * *

|-------------------------------------------------|
|-------------------------------------------------|
|-------------------------------------------------|
|------------------------4-------------------4----|
|------------------------4-------------------4----|
|-5-8-7-5-----555-8-7-5--4----5-8-7-5-8-7-5--4----|
  * * * *     *** * * *       * * * * * * *

The last riff of this part, I do it in 2 ways, One low One high
|--------------------------|    |--------------------------------|
|--------------------------|    |--------------------------------|
|--------------------------|    |-14h15h14----17-15--14h15h14----|
|-7h8h7----10-8-7--7h8h7---| OR |----------15-----------------15-|
|-------8----------------8-|    |--------------------------------|
|--------------------------|    |--------------------------------| 

Breakdown 2 Just hit the open notes in the rythem PM!

|--------------------------------------------------------------------------|
|--------------------------------------------------------------------------|
|--------------------------------------------------------------------------|
|--------------------------------------------------------------------------|
|-5-3h5-3h5---5-3h5-3h5--3h5-3h5--2--3--2-3--3--3--2-3--2h3h0--------------|
|-------------------------------------------------------------4h0----------|

Ending chords
|-------------|
|-------------|
|--7---7------|
|-------------|
|--5---5------|
|-------------|


| *  Palm mute
| /  slide up
| \  slide down
| h  hammer-on
| p  pull-off
| ~  vibrato
| +  harmonic
| x  Mute note
Tap to rate this tab
# A B C D E F G H I J K L M N O P Q R S T U V W X Y Z