Song name
# A B C D E F G H I J K L M N O P Q R S T U V W X Y Z

Texas In July - Hook Line And Sinner tab

By: Brian Benzinger
Tuning: Drop C

Hi, I tabbed this song a few months ago by ear after listening to these guys live and 
really impressed. I've actually, tabbed most of their other songs, too, but they're not 
complete.
A lot of this song is just chugging away open strings, so I tried to make it as exact as 
to help with the timing.
Check this, it's probably about 98% correct.

 A)Intro
|----------------------------|
|----------------------------|
|----------------------------|
|------------------------<5>-|
|----------------------------|
|-3p0-0---0-0-3p0-0----------|

|-------------------------------------------------------|
|-------------------------------------------------------|
|--------------------------------------------------7--7-|
|---------------------0--0-------------------------x--x-|
|---------------------0--0-------------------------5--5-|
|-3p0-00--00-3p0-00---0--0----3p0-00--00-3p0-00----0--0-|

|------------------------------------------------------------|
|------------------------------------------------------------|
|------------------------------------------------------------|
|---------------------0--0-----------------------------------|
|---------------------0--0-----------------------------------|
|-3p0-00--00-3p0-00---0--0----3p0-00--00-3p0-00---pick-slide-|

                                                             ===============]
B)Verse                                                         1,2,3 Ending
|-----------------------------------------------------------|---------------|
|-----------------------------------------------------------|---------------|
|o----------------------------------------------------------|--------------o|
|o----------------------------------------------------------|---5-7-5------o|
|-----------------------------------------------------------|---3-5-3-------|
|-3p0-00--00-3p0-00---00-3p0-0--000000----3p0-00--00-3p0-00-|-00-----000000-|

 ===========]
  4th Ending
|-----------|
|-----------|
|-----------|
|----5-7-5~-|
|----3-5-3~-|
|-00--------|

C)Sweetness
|------------------------------------------------------------|
|------------------------------------------------------------|
|o-----------------------------------------------------------|
|o-0-7-------------------------8-10-8--8-7----7--------------|
|--0---8--8-7---7--------------8-----------10---10-8-7-8-10--|
|--0---------10---10-8-7-8-10--8-----------------------------|

|------------------------------------------------------------|
|------------------------------------------------------------|
|-----------------------------------------------------------o|4x
|--5-8-7--7-5-8-7-5---7-------3--3-3--3-3-3---7--7-7--7-7-7-o|
|--5----------------8---8-7---3--3-3--3-3-3---7--7-7--7-7-7--|
|--5--------------------------3--3-3--3-3-3---7--7-7--7-7-7--|

D)Transition 1
|---------|
|---------|
|---------|
|-00-0-00-|
|-00-0-00-|
|-00-0-00-|

                                           ===========] ====================]
E)Breakdown 1                               1,3 Ending            2nd Ending
|-----------------------------------------|-----------||--------------------|
|-----------------------------------------|-----------||-Skip-last-eight-0s-|
|o----------------------------------------|----------o||-and-jump-directly--|
|o-00-0-00----0000--0000--00-0-00--000-000|-00000000-o||-back-to-E----------|
|--00-0-00----0000--0000--00-0-00--000-000|-00000000--||--------------------|
|--00-0-00----0000--0000--00-0-00--000-000|-00000000--||--------------------|

                                          ==========] ==========] ==========]
                                          4th Ending  5th Ending  6th Ending
                                          |---------||----------||----------|
                                          |---------||----------||----------|
                                          |--17^19--||----------||----------|
                                          |---------||--0-0-0-0-||-000000-5-|
                                          |---------||--0-0-0-0-||-000000-5-|
                                          |---------||--0-0-0-0-||-000000-5-|

F)Transition 2
|--------------------|
|--------------------|
|--------------------|
|-7h8p7---10-8-7-----|
|-------8--------8-7-|
|--------------------|

G)Fun (I know for a fact this isn't the actual way it's played, but it works)
|------------------------------------------------------------------|
|------------------------------------------------------------------|
|o----------------------------------------------------------------o|4x
|o------------12---7h8p7---10--------10---8---------------0-8-7-5-o|
|--5---8--12-------------8--------------------10----5-8-7-0-8-7-5--|
|----00--0---0---00-------------00-88----8---8----8-------0-8-7-5--|

H)Transition 3
|-------------|
|-------------|
|-------------|
|-5-8-7-5--1~-|
|-5-8-7-5--0~-|
|-5-8-7-5--1~-|
  * * * *

                                          =====] ===========================]
I)Breakdown 2                     1,2,3 Endings                   4th Ending
|-----------------------------------------|----||---------------------------|
|-----------------------------------------|----||-10h11p10--13-11-10h11p10--|
|o----------------------------------------|---o||---------10--------------10|
|o-5-8-7-5---0-5-8-7-5--4---5-8-7-5-7-5-4-|-4-o||---------------------------|
|--5-8-7-5---0-5-8-7-5--4---5-8-7-5-7-5-4-|-4--||---------------------------|
|--5-8-7-5---0-5-8-7-5--4---5-8-7-5-7-5-4-|-4--||---------------------------|
   * * * *     * * * *      * * * * * * *

J)Breakdown 3 (Guitar 1)- Play through this 8 times till end of the song
|----------------------------------------------------------------|
|----------------------------------------------------------------|
|o--------------------------------------------------------------o|8x
|o-00000--00000000----0000----00-0--000---000000---0-000---0000-o|
|--00000--00000000----0000----00-0--000---000000---0-000---0000--|
|--00000--00000000----0000----00-0--000---000000---0-000---0000--|

J)Breakdown 3 (Guitar 2)- Begin riff at 2nd time through; play 6x
|---------------------------------------------------------------------------|
|---------------------------------------------------------------------------|
|o-------------------------------------------------------------------------o|
|o-------------------------------------------------------------------------o|
|-5p0--5p0-5p0--5p0-5p0-5p0--5p0-5p0-2p0-3p0-2h3p0-3p0-2h3p0--2p0-3p2p0-----|
|----------------------------------------------------------------------3p2p0|

K)End
|-------|---|
|-------|---|
|-5-----|---|
|-x--0~-|-0-|
|-3--0~-|-0-|
|----0~-|-0-|


Small Key
x - Mute
~ - Hold note out
* - Palm Mute
<>- Harmonic
h - Hammer on
p - Pull off
Tap to rate this tab
 
# A B C D E F G H I J K L M N O P Q R S T U V W X Y Z