Song name
# A B C D E F G H I J K L M N O P Q R S T U V W X Y Z

Texas In July - Reflections tab

Not 100% sure but I spent a lot of time to make sure it's very accurate,
And thank you to spedracer12345 for help on the solo. And this is one of my
first tabs, actually my 2nd not including the intro tab I made for this song.
Enjoy(:

ho=Hammer On
po=Pull Off
*=Pinch Harmonic
\=Neck slide down
/=Neck slide up


INTRO

Both guitars:

D|----------------------------------------------------|
A|----------------------------------------------------|
F|--7-----------------------7-------------------------|
C|----8po7------------5ho7----8po7--------------------|
G|---------8----------3ho5---------8---7ho8-----------|
C|-0---------0-3ho5-0------0---------0------0-10-7\0--|

You do that a lot

VERSE 1

Guitar 1: idk about this

D|-------------------------------|
A|-------------------------------|
F|--7----5ho7po5-5---------------|
C|-0-7ho8-------8-8po7po0--------|
G|-------------------------------|
C|-------------------------------|

F|-------------------------------|
A|-------------------------------|
D|-7---5---5ho7po5ho7po5---------|
C|---0---7---------------8po7----|
G|----------------------------8--|
C|-------------------------------|

Guitar 2:

F|-------------------------------------|
A|-------------------------------------|
D|-------------------------------------|
C|-0000-0000-000-0000-0000-000-00000---|
G|-0000-0000-000-0000-0000-000-00000---|
C|-0000-0000-000-0000-0000-000-00000---|


Breakdown:

Both guitars:

D|---|---------------------------------------------------|
A|---|---------------------------------------------------|
F|---|---------------------------------------------------|
C|-7-|---------------------------------------------------|
G|-7-|--0000-00-00000000-0000-0000-00-00-0-0000-0000-----|
C|-7-|--0000-00-00000000-0000-0000-00-00-0-0000-0000-----|


The second part of the breakdown is different strumming


VERSE 2:

Guitar 1: idk about this either.. ha

D|------------------------------------------------|
A|------------------------------------------------|
F|---7-----------7---------------7ho8po7----------|
C|-7---5po0-7ho8---0ho8po0ho7po0---------0ho8po7--|
G|------------------------------------------------|
C|------------------------------------------------|


Guitar 2:

D|-------------|
A|-------------|
F|-------------|
C|-0--1--3--1--|
G|-0--1--3--1--|
C|-0--1--3--1--|

Open strumming at first for guitar 2, then it changes.


BRIDGE Starts around 1:36

Both guitars:

D|--------------------------------------------------|
A|--------------------------------------------------|
F|--------------------------------------------------|
C|--------------------------------------------------|
G|-5-555-55555555-555-55-0-000-00000000-00000-------|
C|-5-555-55555555-555-55-0-000-00000000-00000-------|


1:45

D|-----------------------------------|
A|-----------------------------------|
F|-----------------------------------|
C|-----------------------------------|
G|-0-000-00000000-000-00-------------|
C|-0-000-00000000-000-00-------------|

1:48

Guitar 1:

D|---------------------------------------|
A|---------------------------------------|
F|---------------------------------------|
C|-10101010101010-888888-777777----------|
G|-8-8-8-8-8-8-8--777777-555555----------|
C|---------------------------------------|

Guitar 2:

D|------------------------------------|
A|------------------------------------|
F|------------------------------------|
C|-3333333333333333-0000000000000000--|
G|-3333333333333333-0000000000000000--|
C|-3333333333333333-0000000000000000--|

For guitar 2, it's either 3's and 0's or 5's and 3's. not sure

1:54

Guitar 1:

D|-----------------------------------|
A|-----------------------------------|
F|-77777777777777777777777777777777--|
C|-----------------------------------|
G|-----------------------------------|
C|-----------------------------------|

Guitar 2:

D|-----------------------------------|
A|-----------------------------------|
F|-----------------------------------|
C|-0-000-00000000-00-00--------------|
G|-0-000-00000000-00-00--------------|
C|-0-000-00000000-00-00--------------| x2


BREAKDOWN 2

Both guitars:

D|--------------------------------------------------|
A|--------------------------------------------------|
F|------------------------------------------10\-----|
C|-0-000-0000000-00-00-0-000-00000000-00-00---------|
G|-0-000-0000000-00-00-0-000-00000000-00-00--8\-----|
C|-0-000-0000000-00-00-0-000-00000000-00-00---------|

2:20

Guitar 1:

D|-------------------------------------|
A|-------------------------------------|
F|-1010101010101010--------------------|
C|------------------------8------7-----|
G|-8-8-8-8-8-8-8-8-------8------8------|
C|-------------------7ho8---7ho8-------|

Guitar 2:

D|--------------------------|
A|--------------------------|
F|--------------------------|
C|-88888888----8----7-------|
G|-88888888----8----7-------|
C|-88888888----8----7-------|


SOLO:

See
http://www.ultimate-guitar.com/tabs/t/texas_in_july/reflections_solo_tab.htm
for the solo for guitar 1, who spedracer12345 did an amazing job at. the entire time the 
guitar 2 does this:


F|--------------------------|
A|---------11-----10--------|
D|-------10--10--9--9-------|
C|-5-1-3-8-------7----------|
G|-5-1-3-8-------7----------|
C|-5-1-3-8-------7----------|

Strumming changes every now and then, and this goes through about the rest
of the song.


FINAL CHORD:

Guitar 1:


F|--------|
A|--------|
D|--------|
C|-8-7-0--|
G|-8-7-0--|
C|-8-7-0--|


Guitar 2:

F|-----------------------|
A|---11-----10-----------|
D|-10--10--9--9-----9----|
C|-8-------7-------------|
G|-8-------7-------------|
C|-8-------7-------------|
Tap to rate this tab
 
# A B C D E F G H I J K L M N O P Q R S T U V W X Y Z