Texas In July - Our Freedom tab

[Our Freedom]
[One Reality]
[Texas In July]

Tuning: CGCFAD (Drop C / 1 Step Down From Drop D)
joshuaoliveira@hotmail.com

As Requested By: JRohrer14

[Riff 1] - [00:02] - [00:16------------------------------------------| - [4x]
- -------------------------------------------------------------------|
- -------------------------------------------------------------------|
- -------------------------------------------------------------------|
- -------------------------------------------------------------------|
- -0-0-0-0---0-0-0---0---0-0---0-0-0-0-0-0---0---0-0---0-0---0----0--|
- -0-0-0-0---0-0-0---0---0-0---0-0-0-0-0-0---0---0-0---0-0---0----0--|
PM ................................................................

[Riff 2] - [00:08] - [00:16-------------------------| - [2x]
- --------------------------------------------------|
- ----------------------------11p10-----------------|
- ----------------------14----------12----------12--|
- -12-------------12-------------------13----12-----|
- ----13-10-10-10----10----10-------------10--------|
- --------------------------------------------------|
PM       ..    ..    ..    ..

- ------------------------------------------|
- ------------------------------------------|
- ------14-------10h12----------------------|
- -0h12----------------12-------------------|
- ---------10h13----------------------------|
- ------------------------12b-0-12b-0-0-12b-|

----------------------------------------------------------------------------

[Riff 3, Guitar 1 & 2] - [00:16] - [00:25----------------------------| - [2x]
- -------------------------------------------------------------------|
- -------------------------------------------------------------------|
- -------------------------------------------------------------------|
- -------------------------------------------------------------------|
- -------------------------------------------------5b----5b------5b--|
- -0-8-0-5-0-0-0-7-0-8-7-5-1-5-0-5-0-0-7-0-3-3/5-0-----0-----0-0-----|
-
- ------------------------------------------------------------------|
- ------------------------------------------------------------------|
- ------------------------------------------------------------------|
- ---------------7---8-7-5-------5-----7-----3/5--------------------|
- -5---------5-------------6---5-----5-----------5-5b----5b------5b-|
- ---8-0-5-0---0---0---------5-----0-----0-3-----------0-----0-0----|

[Riff 2] - [00:21] - [00:25]

----------------------------------------------------------------------------

[Riff 4, Guitar 1 & 2] - [00:25] - [00:27]
- ----------------------------------|
- ---6-6---6---6--------------------|
- ---7-7---7---7-7-7-7-7-7-10101212-|
- ---x-x---x---x-x-x-x-x-x-x-x-x-x--|
- -0-5-5-0-5-0-5-5-5-5-5-5-8-8-1010-|
- -0-----0---0----------------------|
PM .     .   .
-
- ----------------------------------|
- ---------------------10----6h8----|
- -------------------------------7--|
- -----------------0-0---5h8--------|
- -0---0-0---0-0-0------------------|
- -0---0-0---0-0-0------------------|
PM ...............

----------------------------------------------------------------------------

[Riff 5, Guitar 1 & 2] - [00:27] - [00:44]
- ------------------------------------------------------------------|
- ------------------------------------------------------------------|
- ------------------------------------------------------------------|
- ------------------------------------------------------------------|
- -0---0-0---0-0-0-0-0---0---8-8-8-10--8-8---8-8-8-1010--10--101010-|
- -0---0-0---0-0-0-0-0---0---8-8-8-10--8-8---8-8-8-1010--10--101010-|
PM ................................................................
-
- ------------------------------------------------------------------|
- -6-6-6-6-6-6-6-6-6-6-6-6-6----------------------------------------|
- -7-7-7-7-7-7-7-7-7-7-7-7-7-10101014141412121214141515151414141212-|
- -x-x-x-x-x-x-x-x-x-x-x-x-x-x-x-x-x-x-x-x-x-x-x-x-x-x-x-x-x-x-x-x--|
- -5-5-5-5-5-5-5-5-5-5-5-5-5-8-8-8-12121210101012121313131212121010-|
- ------------------------------------------------------------------|


- ------------------------------------------------------------------|
- ------------------------------------------------------------------|
- ------------------------------------------------------------------|
- -----------------10--10101010--1010--10101010--1010--101010101010-|
- -12121212--5-5-5-8---8-8-8-8---8-8---8-8-8-8---8-8---8-8-8-8-8-8--|
- -12121212--5-5-5-8---8-8-8-8---8-8---8-8-8-8---8-8---8-8-8-8-8-8--|
PM ...................................................
-
- ------------------------------------------------------------------|
- ------------------------------------------------------------------|
- -1414141414141414121212121212121212121212121212121010101010101010-|
- -x-x-x-x-x-x-x-x-x-x-x-x-x-x-x-x-x-x-x-x-x-x-x-x-x-x-x-x-x-x-x-x--|
- -1212121212121212101010101010101010101010101010108-8-8-8-8-8-8-8--|
- ------------------------------------------------------------------|


- ------------------------------------------------------------------|
- ------------------------------------------------------------------|
- ------------------------------------------------------------------|
- ------------------------------------------------------------------|
- -0---0-0---0-0-0-0-0---0---8-8-8-10--8-8---8-8-8-1010--10--101010-|
- -0---0-0---0-0-0-0-0---0---8-8-8-10--8-8---8-8-8-1010--10--101010-|
PM ................................................................
-
- ------------------------------------------------------------------|
- -------6-6-6-6-6-6-6-6-6-6----------------------------------------|
- -7-7-7-7-7-7-7-7-7-7-7-7-7-10101014141412121214141515151414141212-|
- -x-x-x-x-x-x-x-x-x-x-x-x-x-x-x-x-x-x-x-x-x-x-x-x-x-x-x-x-x-x-x-x--|
- -5-5-5-5-5-5-5-5-5-5-5-5-5-8-8-8-12121210101012121313131212121010-|
- ------------------------------------------------------------------|


- ------------------------------------------------------------------|
- ------------------------------------------------------------------|
- ------------------------------------------------------------------|
- -----------------10--10101010--1010--10101010--1010--101010101010-|
- -12121212--5-5-5-8---8-8-8-8---8-8---8-8-8-8---8-8---8-8-8-8-8-8--|
- -12121212--5-5-5-8---8-8-8-8---8-8---8-8-8-8---8-8---8-8-8-8-8-8--|
PM ...................................................
-
- ------------------------------------------------------------------|
- ------------------------------------------------------------------|
- -1414141414141414121212121212121212121212121212121010101010101010-|
- -x-x-x-x-x-x-x-x-x-x-x-x-x-x-x-x-x-x-x-x-x-x-x-x-x-x-x-x-x-x-x-x--|
- -1212121212121212101010101010101010101010101010108-8-8-8-8-8-8-8--|
- ------------------------------------------------------------------|

----------------------------------------------------------------------------

[Riff 3, Guitar 1 & 2] - [00:44] - [01:00] - [4x]
[Riff 2] - [00:56] - [01:00]

----------------------------------------------------------------------------

[Riff 6] - [01:00] - [01:09-----------------------------------------| - [2x]
- ------------------------------------------------------------------|
- ------------------------------------------------------------------|
- ------------------------------------------------------------------|
- ------------------------------------------------------------------|
- -0-0-0-0-----0-----0-----0---0-0-0---0-0-----0-----0-----0---0-0--|
- -0-0-0-0-----0-----0-----0---0-0-0---0-0-----0-----0-----0---0-0--|
PM ...............................................................

[Riff 7, Guitar 1 & 2] - [01:09] - [01:17]
- -----------------------------------------------------------------|
- -----------------------------------------------------------------|
- -----------------------------------------------------------------|
- -------0-------------------------------0-----------------0-------|
- -0-0-0-0-----0-----0-----0---0-0-0---0-0-----0-----0-----0---0-0-|
- -0-0-0-0-----0-----0-----0---0-0-0---0-0-----0-----0-----0---0-0-|
PM .....       ..........................      ............    ...
-
- ------------------------------------------------------------------|
- ------------------------------------------------------------------|
- -7-7-7-7-7-7-7-7-7-7-7-7-1010101014141412121214141515151414141212-|
- -x-x-x-x-x-x-x-x-x-x-x-x-x-x-x-x-x-x-x-x-x-x-x-x-x-x-x-x-x-x-x-x--|
- -5-5-5-5-5-5-5-5-5-5-5-5-8-8-8-8-12121210101012121313131212121010-|
- ------------------------------------------------------------------|


- -----------------------------------------------------------------|
- -----------------------------------------------------------------|
- -----------------------------------------------------------------|
- -------0-------------------------------0-----------------0-------|
- -0-0-0-0-----0-----0-----0---0-0-0---0-0-----0-----0-----0---0-0-|
- -0-0-0-0-----0-----0-----0---0-0-0---0-0-----0-----0-----0---0-0-|
PM .....       ..........................      ............    ...
-
- ------------------------------------------------------------------|
- ------------------------------------------------------------------|
- -1414141414141414121212121212121212121212121212121010101014141414-|
- -x-x-x-x-x-x-x-x-x-x-x-x-x-x-x-x-x-x-x-x-x-x-x-x-x-x-x-x-x-x-x-x--|
- -1212121212121212101010101010101010101010101010108-8-8-8-12121212-|
- ------------------------------------------------------------------|

[Riff 8] - [01:17] - [01:25]
- ---------------------------------------|
- ---------------------------------------|
- ---------------------------------------|
- -0-------8---10--12\-5-8---8---10-/14\-|
- -0-------8---10--12\-5-8---8---10-/14\-|
- -0-------8---10--12\-5-8---8---10-/14\-|

[Riff 7, Guitar 2] - [01:17] - [01:25]

----------------------------------------------------------------------------

[Riff 9] - [01:25] - [01:42-----------------------------------------| - [2x]
- ------------------------------------------------------------------|
- ------------------------------------------------------------------|
- ------------------------------------------------------------------|
- -0-0-0-0-0-0-0-0-8-8-8-8-101010101212125-8-8-8-8-8-8-8-8-8-8-8-8--|
- -0-0-0-0-0-0-0-0-8-8-8-8-101010101212125-8-8-8-8-8-8-8-8-8-8-8-8--|
- -0-0-0-0-0-0-0-0-8-8-8-8-101010101212125-8-8-8-8-8-8-8-8-8-8-8-8--|

[Riff 10, Guitar 1 & 2] - [01:25] - [01:42]
- -------------------------------------------------------------------|
- -------------------------------------------------------------------|
- -/7-------7-7/10--9---------------------------9/12--10--9----------|
- -------10------------12--10-----12------10-12---------------12\10--|
- -------------------------------------------------------------------|
- -------------------------------------------------------------------|


- -------------------------------------------------------------------|
- -------------------------------------------------------------------|
- -10-7-----7-7/10--9---------------------------9/12-------10\5--9\7-|
- -------10------------12-----10-----12---10-12------15\10-x--x--x-x-|
- ---------------------------------------------------------8-\3--7\5-|
- -------------------------------------------------------------------|
-
- -------------------------------------------------------------------|
- -------------------------------------------------------------------|
- -14-10----10-10/14--12-----------------------12/15-------15---12---|
- --------14--------------15--14-----15---14-15------19\14----14--15-|
- -------------------------------------------------------------------|
- -------------------------------------------------------------------|

----------------------------------------------------------------------------

[Riff 11] - [01:42] - [02:07-----------------------------------------| - [3x]
- -------------------------------------------------------------------|
- -------------------------------------------------------------------|
- -7-7-7-7-7-7-7-7-7-7-7-7-7-7-7-7-14141412121214141515151414141212--|
- -x-x-x-x-x-x-x-x-x-x-x-x-x-x-x-x-x-x-x-x-x-x-x-x-x-x-x-x-x-x-x-x---|
- -5-5-5-5-5-5-5-5-5-5-5-5-5-5-5-5-12121210101012121313131212121010--|
- -------------------------------------------------------------------|

- ------------------------------------------------------------------|
- ------------------------------------------------------------------|
- -1414141414141414121212121212121212121212121212121010101014141414-|
- -x-x-x-x-x-x-x-x-x-x-x-x-x-x-x-x-x-x-x-x-x-x-x-x-x-x-x-x-x-x-x-x--|
- -1212121212121212101010101010101010101010101010108-8-8-8-12121212-|
- ------------------------------------------------------------------|


[Riff 9] - [01:50] - [02:07] - [2x]

----------------------------------------------------------------------------

[Riff 12, Guitar 1 & 2] - [02:07] - [02:24---------------------------| - [2x]
- -------------------------------------------------------------------|
- -------------------------------------------------------------------|
- -------------------------------------------------------------------|
- -------------------------------------------------------------------|
- -------------0-0-0-0---0-0-0-8-8-3---3-3---3-3-3-3-3-3---3-3-3-3---|
- -------------0-0-0-0---0-0-0-8-8-3---3-3---3-3-3-3-3-3---3-3-3-3---|
PM             ...................................................
-
- ------------------------------------------------------------------|
- -6-6-6-6-6-6-6-6-6-6-6-6-6----------------------------------------|
- -7-7-7-7-7-7-7-7-7-7-7-7-7-10101014141412121214141515151414141212-|
- -x-x-x-x-x-x-x-x-x-x-x-x-x-x-x-x-x-x-x-x-x-x-x-x-x-x-x-x-x-x-x-x--|
- -5-5-5-5-5-5-5-5-5-5-5-5-5-8-8-8-12121210101012121313131212121010-|
- ------------------------------------------------------------------|


- ------------------------------------------------------------------|
- ------------------------------------------------------------------|
- ------------------------------------------------------------------|
- -101010--10101010101010--10101010101010--101010101010101010101010-|
- -8-8-8---8-8-8-8-8-8-8---8-8-8-8-8-8-8---8-8-8-8-8-8-8-8-8-8-8-8--|
- -8-8-8---8-8-8-8-8-8-8---8-8-8-8-8-8-8---8-8-8-8-8-8-8-8-8-8-8-8--|
PM ................................................
-
- ------------------------------------------------------------------|
- ------------------------------------------------------------------|
- -1414141414141414121212121212121212121212121212121010101010101010-|
- -x-x-x-x-x-x-x-x-x-x-x-x-x-x-x-x-x-x-x-x-x-x-x-x-x-x-x-x-x-x-x-x--|
- -1212121212121212101010101010101010101010101010108-8-8-8-8-8-8-8--|
- ------------------------------------------------------------------|

----------------------------------------------------------------------------

[Riff 13, Guitar 1 & 2] - [02:24] - [02:27]
- -------------------------------------------------|
- -------------------------------------------------|
- -------------------------------------------------|
- -0~----------------------------------------------|
- -0~------------------------------000-000---------|
- -0~------------------------------000-000---------|
PM                                 .......
-
- -------------------------------------------------|
- -------------------------------------------------|
- -------------------------------------------------|
- -0~------------------------------0---------------|
- -0~------------------------------0-------000-000-|
- -0~------------------------------0-------000-000-|
PM                                         .......

----------------------------------------------------------------------------

[Riff 14] - [02:27] - [02:47]
- -----------------------------------------------------------------|
- -----------------------------------------------------------------|
- -----------------------------------------------------------------|
- -----------------------------------------------------------------|
- -000-000---------000-000-000-000-000-----000-000---------000-000-|
- -000-000---------000-000-000-000-000-----000-000---------000-000-|
PM ...............................................................

- -----------------------------------------------------------------|
- -----------------------------------------------------------------|
- -----------------------------------------------------------------|
- -----------------------------------------------------------------|
- -000-000---------000-000-000-000-000-----000-000-----000-0-0-0-0-|
- -000-000---------000-000-000-000-000-----000-000-----000-0-0-0-0-|
PM ...............................................................

- -----------------------------------------------------------------|
- -----------------------------------------------------------------|
- -----------------------------------------------------------------|
- -----------------------------------------------------------------|
- -000-000---------000-000-000-000-000-----000-000---------000-000-|
- -000-000---------000-000-000-000-000-----000-000---------000-000-|
PM ...............................................................

- -----------------------------------------------------------------|
- -----------------------------------------------------------------|
- -----------------------------------------------------------------|
- -----------------------------------------------------------------|
- -000-000---------000-000-000-000-000-----000-000-----000-0-0-0-0-|
- -000-000---------000-000-000-000-000-----000-000-----000-0-0-0-0-|
PM ...............................................................

- -----------------|
- -----------------|
- -----------------|
- -----------------|
- -000-000---------|
- -000-000---------|
PM .......

----------------------------------------------------------------------------

[Symbols]

PM... Palm Mute notes with (...) under them
h     Hammer On
p     Pull Off
/     Slide Up
\     Slide Down
x     Dead Note

:)
Tap to rate this tab
 
# A B C D E F G H I J K L M N O P Q R S T U V W X Y Z