Song name
# A B C D E F G H I J K L M N O P Q R S T U V W X Y Z

Texas In July - Dressed For War tab

-------------------------------------------------------------------------------
			     Dressed For War- Texas In July
-------------------------------------------------------------------------------
Tabbed by:Adam Guion
Email:AdamGuion@gmail.com

Man, i thought i would always be playing tabs, not making them.
Just some background, Texas In July is somewhat similar to August Burns Red and 
they're great friends from the same area. I've played a lot of ABR's music which made
 the part of the tab I've done fairly simple. Unfortunately since I've only played 
guitar for a couple years I was only able to do the first two minutes of the song, enjoy!
 
Tuning:Drop C
0:00-0:24
D|---------------------------------------------------------------------------|
A|---------------------------------------------------------------------------|
F|---7~~~~~~~~~~7~~~~~~~~~------------7~~~~~~~~~~7~~~~~~~~~------------------|
C|------------------------0~~~~~~~~~~~---------------------0~~~~~~~~~~~------|
G|---5~~~~~~~~~~5~~~~~~~~~0~~~~~~~~~~~5~~~~~~~~~~5~~~~~~~~~0~~~~~~~~~~~------|
C|------------------------0~~~~~~~~~~~---------------------0~~~~~~~~~~~------|

D|---------------------------------------------------------------------------|
A|---------------------------------------------------------------------------|
F|---7~~~~~~~~~~10~~~~~~~~~-----------7~~~~~~~~~~10~~~~~~~~------------------|
C|------------------------0~~~~~~~~~~~---------------------0~~~~~~~~~0~~~~~~-|
G|---5~~~~~~~~~~8~~~~~~~~~0~~~~~~~~~~~5~~~~~~~~~~8~~~~~~~~~0~~~~~~~~~0~~~~~~-|
C|------------------------0~~~~~~~~~~~---------------------0~~~~~~~~~0~~~~~~-|

Btw you're probably screwed here if you can't palm mute AND alternate pick.
0:25-1:00
D|---------------------------------------------------------------------------|
A|---------------------------------------------------------------------------|
F|---------------------------------------------------------------------------|
C|---------------------------------------------------------------------------|
G|000-0000-000-0000-00-0-00--------------------------------------------------|
C|000-0000-000-0000-00-0-00--------------------------------------------------|

 ^Repeat that breakdown 4 times, then the lead starts its little solo, sorry I
 can't figure it out. While the lead does its solo repeat the breakdown eight more times.
1:01-1:37
D|----------------|--------------------------------------------------------------------------|
A|----------------|--------------------------------------------------------------------------|
F|----------------|----------------------------------------------7-----------10--------------|
C|8~~10~~0~~~~~~--|8~~88~~888~~888~~8885~~55~~555~~555~~555------x(x16)------x(x16)----------| x4
G|8~~10~~0~~~~~~--|8~~88~~888~~888~~8885~~55--555~~555~~555---00-5--------00-8---------------|
C|8~~10~~0~~~~~~--|8~~88~~888~~888~~8885~~55--555~~555~~555---00----------00-----------------|

1:37-1:42
D|---------------------------------------------------------------------------|
A|---------------------------------------------------------------------------|
F|---------------------------------------------------------------------------|
C|8~~~~~5~~~~~---------------------------------------------------------------|
G|8~~~~~5~~~~~-000-0000-000-00-----------------------------------------------|
C|8~~~~~5~~~~~ 000-0000-000-00-----------------------------------------------|

1:43-1:57
D|-----------------------------|
A|-----------------------------|
F|-----------------------------|
C|-----------------------------|x4
G|000-0000-000-0000-00-0-00----|
C|000-0000-000-0000-00-0-00----|

And that's as far as I got guys, sorry. In the future I will try to tab the rest 
when I have a bit more skill, but I know you guys will be happy with just this so far.

************************************

| /   slide up
| \   slide down
| h   hammer-on
| p   pull-off
| ~   vibrato
| +   harmonic
| x   Mute note
| b   Bend
| pb  Pre-bend
| br  Bend release
| pbr Pre-bend release
| brb Bend release bend

************************************
Tap to rate this tab
# A B C D E F G H I J K L M N O P Q R S T U V W X Y Z