Song name
# A B C D E F G H I J K L M N O P Q R S T U V W X Y Z

Texas In July - Its Not My First Rodeo tab

It's Not My First Rodeo
     by Texas in July


Here are all the lead riffs. I haven't finished the rhythm parts and breakdowns, but the 
rest of the song is pretty much just power chords and octaves. This tab is probably at 
least 98% correct.


1st Solo

                                                                               x6
D|------------------------------------------------------------------------------|
A|------------------------------------------------------------------------------|
F|--10-7-7-9------------------------------10-7-7-9-----------10-7-------------9-|
C|-----------8-7-7-7-7----7-8-7----7-8-------------8-7-7-7-7------8------7-10---|
G|---------------------10-------10----------------------------------10-8--------|
C|------------------------------------------------------------------------------|

2nd Solo

                       x1
D|--6-------------------|
A|-------6-8-10-----6---|
F|----7---------7-7-----|
C|----------------------|
G|----------------------|
C|----------------------|

Whole thing x6
D|--6-------------------------------------|
A|--------6-8-10-----6----------6-5-------|
F|-----7---------7-7----------------5-----|
C|---------------------8-10-8-7-------8---|
G|----------------------------------------|
C|----------------------------------------|

D|--6------------------------------------|
A|--------6-8-10-----6-------------------|
F|-----7---------7-7---------------------|
C|---------------------8-10-8-7-8-7------|
G|----------------------------------10-8-|
C|---------------------------------------|

Afterwards, the song goes into aback to the first part, which is played 11 more times.

3rd Solo

Whole thing x4

D|----------------------------------------------------|
A|-13------------------------13-----------------------|
F|-----10-9---------9-10-12------10-9-------9-10-12---|
C|-----------12-10--------------------12-10-----------|
G|----------------------------------------------------|
C|----------------------------------------------------|

D|------------10------------------------10------------|
A|--13-----------13----13-------13---------13----13---|
F|------10-9--------10----10-------10-9-------10----10|
C|----------------------------------------------------|
G|----------------------------------------------------|
C|----------------------------------------------------|

D|--17-----------------------17------------------------|
A|-----15-----------------------15---------------------|
F|--------14----------14-----------14----------14------|
C|-----------15----15----15-----------15----15----15---|
G|--------------17-----------------------17------------|
C|-----------------------------------------------------|

D|------------10------------------------10------------|
A|--13-----------13----13-------13---------13----13---|
F|------10-9--------10----10-------10-9-------10----10|
C|----------------------------------------------------|
G|----------------------------------------------------|
C|----------------------------------------------------|

Notes: Alternate pick notes on the same string, but sweep between notes on different 
strings when ever possible. Hammer ons and pull offs are not shown.
Tap to rate this tab
# A B C D E F G H I J K L M N O P Q R S T U V W X Y Z