Song name
# A B C D E F G H I J K L M N O P Q R S T U V W X Y Z

Texas In July - Magnolia tab

Tabbed By : Christian Maya- Toledo
Date : 4/2/2012

Magnolia- Texas In July

Legend :
~ Hold note
* palm mute
" Tremolo pick

Gtr 1 : (CGCFAD)
Gtr 2 : (CGCFAD)

Intro Gtr 1 & 2
D|----------------|
A|----------------|
F|----------------| x1
C|--0~~~----------|
G|--0~~~----------|
C|--0~~~----------|

Gtr 1
D|----------------------------------------------------------|
A|----------------------------------------------------------|
F|----------------------------------------------------------| x4
C|----------------------------------------------------------|
G|--00-00~--0-0000-0-0~--0-0000-0-0~--0-0000-0-0~--0000-00--|
C|--00-00~--0-0000-0-0~--0-0000-0-0~--0-0000-0-0~--0000-00--|

Gtr 2 (Behind Gtr 1)
D|----------------------------|
A|--10"--11"---6"---8"--------|
F|---7"---7"---7"---7"--------| x2
C|----------------------------|
G|----------------------------|
C|----------------------------|

D|-------------------------------------------------------------------|
A|--15-17-15-----------------10-10-10-10-10-10-10-10-10-13-13-13-13--|
F|-----------14-------14~~----x--x--x--x--x--x--x--x--x--x--x--x--x--| x2
C|--------------15------------7--7--7--7--7--7--7--7--7-10-10-10-10--|
G|-----------------17------------------------------------------------|
C|-------------------------------------------------------------------|

Verse 1 Gtr 1 & 2
D|------------------------------------------------------------------|
A|------------------------------------------------------------------|
F|------------------------------------------------------------------| x2
C|------------------------------------------------------------------|
G|--000000-000-0-000-00000-000-0-00000000-000-0-00~-00~-0~-00-0-00--|
C|--000000-000-0-000-00000-000-0-00000000-000-0-00~-00~-0~-00-0-00--|

Verse 2 Gtr 1
D|----------------------|
A|--3~---3~---3~---3~---|
F|--2~---2~---2~---2~---| x2
C|--0~---0~---0~---0~---|
G|--0~---0~---0~---0~---|
C|--0~---0~---0~---0~---|

thats all i have for now! more coming tomorrow!
Tap to rate this tab
# A B C D E F G H I J K L M N O P Q R S T U V W X Y Z