Song name
# A B C D E F G H I J K L M N O P Q R S T U V W X Y Z

Texas In July - May tab

This is all by ear so I don't know if every bit of it is correct.
Standard tuning


|---------0------------0h2h3-2--------3p2--------3--|
|----3------3------3-----------3----------3------3--|
|------0------0------0-----------0---------------0--|
|--2------------2--------------------------------2--|
|----------------------------------2---------2-3-3--|
|---------------------------------------------------|

|---------0-------2-----2h3p2---------3p2---------3--|
|----3------3-------3---------3-----------3-------3--|
|------0------0-----------------0-----------0-----0--|
|--2------------2-----2-----------2---------------2--|
|-----------------------------------2---------2-3-3--|
|----------------------------------------------------|

That's the intro. For the next part you continue to play the intro (it's a little bit 
different though) but another guitar kicks in...

|---------0------------0h2h3-2--------3p2---------3--|
|----3------3------3-----------3----------3s5s3---3--|
|------0------0------0-----------0----------------0--|
|--2------------2---------------------------------2--|
|----------------------------------2------------2-3--|
|----------------------------------------------------|

|---------0-------2-----2h3p2---------3p2----------3--|
|----3------3-------3---------3-----------3s3s-----3--|
|------0------0-----------------0------------------0--|
|--2------------2-----2-----------2----------------2--|
|-----------------------------------2----------2-3-3--|
|-----------------------------------------------------|

When you play the C chord at the end this time you strum it then enter the next part. 
The 2nd guitar is struming Em, G, Cadd9 while the picking is being played.

After that you Strum Em7 to Cadd9 but he does this with the Cadd9....


|--3-----3-----2-----3--|
|--3-----3-----3-----3--|
|--0-----0-----0-----0--|
|--2-----2-----0-----2--|
|--2-----3-----3-----3--|
|--0--------------------|

I also think he is doing something similar with the Em7 chord but not sure.
The rest of the song is basically just repeats so just figure out where everything goes. 
If I missed something sorry :/
Tap to rate this tab
# A B C D E F G H I J K L M N O P Q R S T U V W X Y Z