Guitaretab - guitar tabs
Song name
# A B C D E F G H I J K L M N O P Q R S T U V W X Y Z

Texas Is The Reason - If Its Here When We Get Back Its Ours tab

This is a great song by a great band, but with no good tabs.  This is my first
tab and not 100%, but its probably one of the best out there, feel free to tell
me if I messed something up, otherwise enjoy!

Intro/Verse
E------------------------------------------|
B------------------------------------------|
G7-7777-67-777777-------------7-7777-----|
D7-7777-77-777777-444-00055-7-7777-----|
A5-5555-55-555555-444-00055-5-5555-----|
D-------------------444-00055-5-5555-----|

Chorus A
E---------------------------------------------|
B---------------------------------------------|
G------------------------------------9-9999---|
D444-000-444-000-44-00444-00077-7-9-9999---|
A444-000-444-000-44-00444-00077-7-7-7777---|
D444-000-444-000-44-00444-00077-7-7-7777---|

Chorus B
E-----------------------------------------------------------------|
B-----------------------------------------------------------------|
G-----------------------------------------------------------------|
D444-000-444-000-44-00444-00077-7-7-7777-----------------------|
A444-000-444-000-44-00444-00077-7-7-7777-----------------------|
D444-000-444-000-44-00444-00077-7-7-7777-----------------------|

Chorus C
E-----------------------------------------------------------------|
B-----------------------------------------------------------------|
G-----------------------------------------------------------------|
D444-000-444-000-44-00444-00077-7-7-7-------------------------|
A444-000-444-000-44-00444-00077-7-7-7-------------------------|
D444-000-444-000-44-00444-00077-7-7-7-------------------------|
[ Tab from: http://www.guitaretab.com/t/texas-is-the-reason/19192.html ]
Chorus D
E-----------------------------------------------------------------|
B-----------------------------------------------------------------|
G----------------------------------9---9999-----------------------|
D4---0---4---0---4-04---0---7---79---9999-----------------------|
A4---0---4---0---4-04---0---7---77---7777-----------------------|
D4---0---4---0---4-04---0---7---77---7777-----------------------|

Solo Part 1
E------------------------------------------------------------------|
B------------------------------------------------------------------|
G1919191919191919191919191919191919191919191919191919191919191919
Dx-x-x-x-x-x-x-x-x-x-x-x-x-x-x-x-x-x-x-x-x-x-x-x-x-x-x-x-x-x-x-x
A1717171717171717171717171717171717171717171717171717171717171717
D-----------------------------------------------------------------

Solo Part 2 (Add slight bend)
E------------------------------------------------------------------|
B------------------------------------------------------------------|
G1919191919191919191919191919191919191919191919191919191919191919
Dx-x-x-x-x-x-x-x-x-x-x-x-x-x-x-x-x-x-x-x-x-x-x-x-x-x-x-x-x-x-x-x
A1717171717171717171717171717171717171717171717171717171717171717
D-----------------------------------------------------------------

End
E---------------|
B---------------|
G---------------|
D407
A407
D407

Intro x2
Verse x4
Chorus A x2 palm muted
Chorus A x2
Verse x4
Chorus A x2 palm muted
Chorus B x1
Chorus C x1
Chorus D x2
Chorus A x2
Solo Part 1 x1 (w/ chorus A underneath)
Solo Part 2 x1 (w/ chorus A underneath
End x1

Any comments, suggestions, or corrections are appreciated, so email me at
guitarpunker17@yahoo.com
Related for If Its Here When We Get Back Its Ours tab