Song name
# A B C D E F G H I J K L M N O P Q R S T U V W X Y Z

Texas Is The Reason - Do You Know Who You Are tab

|---------4hp5--------4-----4----------4-----4---------4-------4-------|
|-----5--------5--------5------5---5-----5-----5---5-----5-------5---5-|
|---4---4--------4--------4------4---------4-----4-----------4-----4---|
|------------------0------4------4---------4-----4----0------4-----4---|
|-4--------------------------------------------------------------------|
|------------------------------------2---------------------------------|

Guitar 2 plays after this part^is played twice
|------------------------------|
|------------------------------|
|------------------------------|
|-4/7-3-4/7-8--7--5-4/7-3-/5\3-|
|-5/8-5-5/8-10-9--7-5/8-5-/7\5-|
|------------------------------|
 I'm pretty sure this is it(: thank you for viewing this tab. comment and rate(:
Tap to rate this tab
# A B C D E F G H I J K L M N O P Q R S T U V W X Y Z