Song name
# A B C D E F G H I J K L M N O P Q R S T U V W X Y Z

Texas Is The Reason - Johnny On The Spot tab

-------------------------------------------------------------------------------
			     Johnny On The Spot - Texas Is The Reason
-------------------------------------------------------------------------------
Tabbed by:
Email:

Tuning: DROP D

Intro (x 4)

Guitar 1 - Garett Klahn

e|------------------------------------------------------------------------------------|
B|------------------------------------------------------------------------------------|
G|---5----55--------------------------------------------------------------------------|
D|---3----33--------------------------------------------------------------------------|
A|---3----33--------------------------------------------------------------------------|
E|---3----33--------------------------------------------------------------------------|

Guitar 2 - Norm Arenas (slight palm muting - played after Garrett's strums)

e|------------------------------------------------------------------------------------|
B|-----------------1--------1-----------1---------------------------------------------|
G|----------0---------0---------0----------0------------------------------------------|
D|---2/3------3---------3---------3-----------3---------------------------------------|
A|------------------------------------------------------------------------------------|
E|------------------------------------------------------------------------------------|

Verse Part 1 ("You're allowed to stay for a while...)

Guitar 1

e|------------------------------------------------------------------------------------|
B|------------------------------------------------------------------------------------|
G|---5----55---------(repeat, leaving gap for Norm's part after every three strums----|
D|---3----33--------------------------------------------------------------------------|
A|---3----33--------------------------------------------------------------------------|
E|---3----33--------------------------------------------------------------------------|

Guitar 2  (let notes ring this time)

e|------------------------------------------------------------------------------------|
B|-----------------1--------1-----------1---------------------------------------------|
G|----------0---------0---------0----------0------------------------------------------|
D|---2/3------3---------3---------3-----------3---------------------------------------|
A|------------------------------------------------------------------------------------|
E|------------------------------------------------------------------------------------|

Break (instrumental)

Guitar 1 - Garett Klahn (x2)

e|-----------------------------------------------------------------------------|
B|-----------------------------------------------------------------------------|
G|---5----55-------------------------------------------------------------------|
D|---3----33-------------------------------------------------------------------|
A|---3----33-------------------------------------------------------------------|
E|---3----33-------------------------------------------------------------------|

2 - Norm Arenas (slight palm muting - played after Garrett's strums) (x2)

e|------------------------------------------------------------------------------------|
B|-----------------1--------1-----------1---------------------------------------------|
G|----------0---------0---------0----------0------------------------------------------|
D|---2/3------3---------3---------3-----------3---------------------------------------|
A|------------------------------------------------------------------------------------|
E|------------------------------------------------------------------------------------|

then

Guitar 1

e|-----------------------------------------------------------------|
B|-----3-3-3-3-3-3-3-----------------------------------------------|
G|-----0-0-0-0-0-0-0-----------------------------------------------|
D|-----0-0-0-0-0-0-0---222222222--333333333------------------------|
A|-----3-3-3-3-3-3-3---222222222--333333333------------------------|
E|---------------------------222222222--333333333------------------|

Guitar 2

e|--------------------------------------------------------------------------|
B|---3-3-3-3-3-3-3-3-3-3-3-3-3-3-3-3-3-3-3-3-3-3-3--------------------------|
G|---0-0-0-0-0-0-0-0-0-0-0-0-0-0-0-0-0-0-0-0-0-0-0--------------------------|
D|---0-0-0-0-0-0-0-0-0-0-0-0-0-0-0-0-0-0-0-0-0-0-0--------------------------|
A|---3-3-3-3-3-3-3-3-3-3-3-3-3-3-3-3-3-3-3-3-3-3-3--------------------------|
E|--------------------------------------------------------------------------|

THEN ONE REPETITION OF INTRO PART, THEN...


Part 2 ("Well I would have thought by now you'd be...)

Guitar 1


e|------------------------------------------------------------|
B|---3-3-3-3-3-3-3--------------------------------------------|
G|---0-0-0-0-0-0-0--------------------------------------------|
D|---0-0-0-0-0-0-0---222222222--333333333---------------------|
A|---3-3-3-3-3-3-3---222222222--333333333---------------------|
E|-------------------------222222222--333333333---------------|

then (mute first three)

e|-----------------------------------------------------------------------------|
B|------------333333-----------------------------------------------------------|
G|-----------222222------------------------------------------------------------|
D|--000------000000------------------------------------------------------------|
A|--000------000000------------------------------------------------------------|
E|--000------000000------------------------------------------------------------|

Guitar 2

e|-----------------------------------------------------------------------------|
B|---3-3-3-3-3-3-3-3-3-3-3-3-3-3-3-3-3-3-3-3-3-3-3-----------------------------|
G|---0-0-0-0-0-0-0-0-0-0-0-0-0-0-0-0-0-0-0-0-0-0-0-----------------------------|
D|---0-0-0-0-0-0-0-0-0-0-0-0-0-0-0-0-0-0-0-0-0-0-0-----------------------------|
A|---3-3-3-3-3-3-3-3-3-3-3-3-3-3-3-3-3-3-3-3-3-3-3-----------------------------|
E|-----------------------------------------------------------------------------|

then (mute first three)

e|-----------------------------------------------------------------------------|
B|----------333333-------------------------------------------------------------|
G|----------222222-------------------------------------------------------------|
D|--000-------000000-----------------------------------------------------------|
A|--000-------000000-----------------------------------------------------------|
E|--000-------000000-----------------------------------------------------------|

Next part ("Well cause I'm sick of hearing it...)

Guitar 1

e|-----------------------------------------------------------------------------|
B|-----3-3-3-3-3-3-3-----------------------------------------------------------|
G|-----0-0-0-0-0-0-0-----------------------------------------------------------|
D|-----0-0-0-0-0-0-0---222222222--333333333------------------------------------|
A|-----3-3-3-3-3-3-3---222222222--333333333------------------------------------|
E|-----------------------222222222--333333333----------------------------------|

then (mute first three)

e|----------------------------------------------------------------|
B|-------------3--------------------------------------------------|
G|-------------2--------------------------------------------------|
D|--000--------0--let ring----------------------------------------|
A|--000--------0--------------------------------------------------|
E|--000--------0--------------------------------------------------|


Guitar 2

e|-----------------------------------------------------------------------------|
B|---3-3-3-3-3-3-3-3-3-3-3-3-3-3-3-3-3-3-3-3-3-3-3-----------------------------|
G|---0-0-0-0-0-0-0-0-0-0-0-0-0-0-0-0-0-0-0-0-0-0-0-----------------------------|
D|---0-0-0-0-0-0-0-0-0-0-0-0-0-0-0-0-0-0-0-0-0-0-0-----------------------------|
A|---3-3-3-3-3-3-3-3-3-3-3-3-3-3-3-3-3-3-3-3-3-3-3-----------------------------|
E|-----------------------------------------------------------------------------|

then (mute first three)

e|----------------------------------------------------------------|
B|-------------3--------------------------------------------------|
G|-------------2--------------------------------------------------|
D|--000--------0--let ring----------------------------------------|
A|--000--------0--------------------------------------------------|
E|--000--------0--------------------------------------------------|

Back to INTRO x 4

Then repeat all of above once more through - structure is the same, as is the lyrics.

Then - OUTRO (follows last ring out of the D chord)

Part 1

Guitars 1 + 2

e|----------------------------------------------------------------------|
B|----3-----------------------------------------------------------------|
G|----0---(strum from high to low)--------------------------------------|
D|----0------(let ring )------------------------------------------------|
A|----3--------------------------------------3/5/3----------------------|
E|----------------------------------------------------------------------|

(mute the 3s before the 3-0-0-3 chord)

e|-----------------------------|
B|--------------3-----------3--|
G|--------------0----------0---|
D|--------------0----------0---|
A|--2-2/3-333--3333333---3-----|
E|-----------------------------|


(repeat c. 8 times - listen to record to affirm)

then strum last chord with no muting several times to lead into...

Guitars 1+2 ("Everybody tells me something, something different, every time)

e|-----------------------------------------------------------|
B|---------------------------33333333333---------------------|
G|---------------------------00000000000---------------------|
D|--22222222-33333333-------00000000000----------------------|
A|--22222222-33333333-------33333333333----------------------|
E|--22222222-33333333----------------------------------------|

("Well I'll make up my own damn mind...)

Guitar 1

e|------------------------------------------------------------|
B|-----------------------------33333333333--------------------|
G|-----------------------------00000000000--------------------|
D|--22222222-33333333-------00000000000-----------------------|
A|--22222222-33333333-------33333333333-----------------------|
E|--22222222-33333333-----------------------------------------|

Guitar 2

e|------------------------------------------------------------------------------------|
B|------------------------------------------------------------------------3333333333--|
G|--12----------12/14--12-------12/101010--10/999---0000000000------------------------|
D|--x---(x16)--x--x-----x---(x8)-x---x---x--x----x--xxx----0000000000-----------------|
A|--10----------10/12--10-------10/8--8--8----8/777----3333333333---------------------|
E|------------------------------------------------------------------------------------|

Repeat one more time, both parts are the same, then back to outro.

e|-----------------------------------------------------------------------------|
B|----3------------------------------------------------------------------------|
G|----0---(strum from high to low)---------------------------------------------|
D|----0------(let ring )-------------------------------------------------------|
A|----3--------------------------------------3/5/3-----------------------------|
E|-----------------------------------------------------------------------------|

(mute the 3s before the 3-0-0-3 chord)

e|----------------------------|
B|--------------3----------3--|
G|--------------0----------0--|
D|--------------0----------0--|
A|--2-2/3-333--3333333---3----|
E|----------------------------|

Repeat till end of song.

Thanks this is my first tab so let me know if it's any good.


************************************

| /   slide up
| \   slide down
| h   hammer-on
| p   pull-off
| ~   vibrato
| +   harmonic
| x   Mute note
| b   Bend
| pb  Pre-bend
| br  Bend release
| pbr Pre-bend release
| brb Bend release bend

************************************
Tap to rate this tab
# A B C D E F G H I J K L M N O P Q R S T U V W X Y Z