Song name
# A B C D E F G H I J K L M N O P Q R S T U V W X Y Z

Texas Is The Reason - Do You Know Who You Are tab

Hi!
I saw that the guitar 2 on the other tabs were incorrect so I decided to post the way I play it.
By the way this is my first tab.
If you want to contact me: vemledoux@yahoo.com
Enjoy!

Guitar 1:

|---------5hp5-------5-----5---------5-----5---------5-----5-------|
|-----6--------6-------6-----6---6-----6-----6---6-----6-----6---6-|
|---5---5--------5-------5-----5---------5-----5---------5-----5---|
|-0----------------0---------------0---------------0---------------|
|------------------------------------------------------------------|
|------------------------------------------------------------------|

Guitar 2: (0:19)

|------------------------------------------------------------------|
|------------------------------------------------------------------|
|------------------------------------------------------------------|
|-5/7-3--5/7-8-7-5-7-3--3/5\3--------------------------------------|
|------------------------------------------------------------------|
|------------------------------------------------------------------|
 
Guitar 2: (1:00)

|---------------------|
|---------------------|
|-----5-----5-----5---|
|---7-----7-----7-----|
|-5-----6-----5-----6-|
|---------------------|

Guitar 2: (1:35)

|------------------------------------------------------------------|
|------------------------------------------------------------------|
|------------------------------------------------------------------|
|-5/7-3--5/7-8-7-5-7-3--3/5\3--------------------------------------|
|------------------------------------------------------------------|
|------------------------------------------------------------------|

Tap to rate this tab
 
# A B C D E F G H I J K L M N O P Q R S T U V W X Y Z