Song name
# A B C D E F G H I J K L M N O P Q R S T U V W X Y Z

Texas Is The Reason - Theres No Way I Can Talk Myself Out Of This One tab

-----------------------------------------------------------------------------
    THERES NO WAY I CAN TALK MYSELF OUT OF THIS ONE - Texas is the Reason
-----------------------------------------------------------------------------
Tuning: Drop D

Intro: x4
G|-------------------------------------------------|
D|-------------------------------------------------|
A|---0---1-----0-----1-0---------0-----1-0---------|
D|-3---3---3-3---3-3-----3-0-0-0---0-0-----0-5---5-|
 |                                                 |
e|-------------------------------------------------|
B|-------------------------------------------------|
G|-5-----------------5---3-2-----------------------|
D|-3-----------------3---3-3-----------------------|
A|-------------------------------------------------|
D|-------------------------------------------------|

Verse:
e|--------------------------|
B|--------------------------|
G|--------------------------|etc...
D|-3-3-3-3-3-3-3-3-3-3-3-3--|
A|-3-3-3-3-3-3-3-3-3-3-3-3--|
D|-3-3-3-3-3-3-3-3-3-3-3-3--|
 |                          |
e|--------------------------|
B|--------------------------|
G|-3-2-3-0-5---3-2-3-0-5----|
D|-----------3-----------3--|
A|--------------------------|
D|--------------------------|


Chorus: x4
e|------------------------------------------------|
B|------------------------------------------------|
G|-------5-----------3----------------------------|
D|-5-5-5-5-----3-3-3-3------3-3-3-3-3-3-3-3-3-3-3-|
A|-3-3-3-3-----1-1-1-1------3-3-3-3-3-3-3-3-3-3-3-|
D|--------------------------3-3-3-3-3-3-3-3-3-3-3-|
   pm. .       . . .      (pm all this on last time)


Bridge:
e|--------------------------------------------------|
B|--------------------------------------------------|
G|--------------------------------------------------|
D|-5-5-5-5-5-5-8-8-8-8-8-8-3-3-3-3-3-3-3-3-3-3-3-3--|
A|-5-5-5-5-5-5-8-8-8-8-8-8-3-3-3-3-3-3-3-3-3-3-3-3--|
D|-5-5-5-5-5-5-8-8-8-8-8-8-3-3-3-3-3-3-3-3-3-3-3-3--|
 |                                                  |
e|--------------------------------------------------|
B|--------------------------------------------------|
G|-7-7-7-7-7-7-101010101210101010101010121212141414-|
D|-x-x-x-x-x-x-x-x-x-x-x-x-x-x-x-x-x-x-x-x-x-x-x-x--|
A|-5-5-5-5-5-5-8-8-8-8-108-8-8-8-8-8-8-101010121212-|
D|--------------------------------------------------|

e|--------------------------------------------------|
B|--------------------------------------------------|
G|--------------------------------------------------|
D|-5-5-5-5-5-5-8-8-8-8-8-8-3-3-3-3-3-3-3-3-3-3-3-3--|
A|-5-5-5-5-5-5-8-8-8-8-8-8-3-3-3-3-3-3-3-3-3-3-3-3--|
D|-5-5-5-5-5-5-8-8-8-8-8-8-3-3-3-3-3-3-3-3-3-3-3-3--|
 |                                                  |
e|--------------------------------------------------|
B|--------------------------------------------------|
G|-121212121212151515141514101010101010101010101010-|
D|-x-x-x-x-x-x-x-x-x-x-x-x-x-x-x-x-x-x-x-x-x-x-x-x--|
A|-1010101010101313131213128-8-8-8-8-8-8-8-8-8-8-8--|
D|--------------------------------------------------|

Outro: play this a ton until fade
e|----------------------|----------------------|
B|-11-10-11-8--10-------|-11-10-11-8--10-------|
G|-10--------------10---|-10--------------10---|
D|----------------------|----------------------|
A|----------------------|----------------------|
D|----------------------|----------------------|
 |                      |                      |
e|----------------------|----------------------|
B|----------------------|----------------------|
G|----------------------|----------------------|
D|----------------------|----------------------|
A|----------------------|----------------------|
D|-----------5-----7----|-3--------------------|
Tap to rate this tab
# A B C D E F G H I J K L M N O P Q R S T U V W X Y Z