Song name
# A B C D E F G H I J K L M N O P Q R S T U V W X Y Z

Texas Is The Reason - Something To Forget tab

-----------------------------------------------------------------------------
            SOMETHING TO FORGET (VERSION I) - Texas Is The Reason
-----------------------------------------------------------------------------
So someone requested I tab this out, so I thought I'd give it a try. It'd 
definitely missing a lot of parts, but it's better than nothing. It should give 
you a good foundation of how to play the song.

Tuning: Drop D

Intro I:
e|------------2-----2----5----5-3-2-2h3-2----------------|
B|------3--------3-----3------------------5-5--5-/-3-3---|
G|----2-----------2--------------------------------------|
D|--0----------------------------------------------------|
A|-------------------------------------------------------|
D|-------------------------------------------------------|

Intro II: (rhythm is constant 16th notes)
e|---------------------------------------------------|
B|---------------------------------------------------|
G|---------------------------------------------------|
D|-00000000444444445-5-5-5-5-5-5-5-5-5-5-5-5-5-5-5---|
A|-00000000555555555-5-5-5-5-5-5-5-5-5-5-5-5-5-5-5---|
D|-00000000444444445-5-5-5-5-5-5-5-5-5-5-5-5-5-5-5---|
 |                                                   |
e|---------------------------------------------------|
B|---------------------------------------------------|
G|-777777779999777712121211111111111212121111111111--|
D|-xxxxxxxxxxxxxxxxx-x-x-x-x-x-x-x-x-x-x-x-x-x-x-x---|
A|-55555555777755551010109-9-9-9-9-1010109-9-9-9-9---|
D|---------------------------------------------------|

e|------------------------------------|-------------|
B|------------------------------------|-------------|
G|------------------------------------|-------------|
D|-0000000055555555-------------------|-0-----------|
A|-0000000055555555-5-55555555555555--|-0-----------|
D|-0000000055555555-4-44444445555555--|-0-----------|
 |                    pm..........                  |Leads into verse
 |                                                  |
e|------------------------------------|-----555-5-5-|
B|------------------------------------|-----777-7-7-|
G|-7777777799997777-------------------|-7-----------|
D|-xxxxxxxxxxxxxxxx-------------------|-x-----------|
A|-5555555577775555-5-55555555555555--|-5-----------|
D|------------------4-44444455555555--|-------------|
                      pm..........

Verse: Just the Intro II x3 and repeat the last palm muted part 3x


Chorus: x4
e|-------------------------------------------------------------------|
B|-------------------------------------------------------------------|
G|-------------------------------------------------------------------|
D|-000000000000000000000000000000005555555555557fbr55555555555555555-|
A|-00000000000000000000000000000000555555555555-----5555555555555555-|
D|-00000000000000000000000000000000555555555555-----5555555555555555-|
 |                                      *bend the 7 up to a 9        |
 |                              and then release back down to the 5  |
 |                                                                   |
e|-------------------------------------------------------------------|
B|-------------------------------------------------------------------|
G|-77777777777777777777777777777777----------------------------------|
D|-xxxxxxxxxxxxxxxxxxxxxxxxxxxxxxxx-7--7779--99999----7--7779--9999--|
A|-55555555555555555555555555555555-5--5555--55555----5--5555--5555--|
D|----------------------------------5--5555--55555----5--5555--5555--|


Now go back and repeat the Intro II, Verse and Chorus again


Clean Bridge: (emphasis on the v's)
e|-5-5-5-5-5-5-5-5-5-5-5-5-5-5-5-5-|
B|-7-7-7-7-7-7-7-7-7-7-7-7-7-7-7-7-|
G|-7-7-7-7-7-7-7-7-7-7-7-7-7-7-7-7-|x a lot
D|-v-----v-----v-----v-----v---v---|
A|---------------------------------|
D|---------------------------------|
 |                                 |
e|-101010------15151514141410101010|
B|-------101010--------------------|
G|---------------------------------|
D|---------------------------------|
A|---------------------------------|
D|---------------------------------|

Distorted Bridge:
e|------------------------------------------------------------------|
B|------------------------------------------------------------------|
G|------------------------------------------------------------------|
D|-4444444444444444222222222222222255555555555555550000000044445555-|
A|-4444444444444444222222222222222255555555555555550000000055555555-|
D|-4444444444444444222222222222222255555555555555550000000044445555-|
 |                                                                  |
e|------------------------------------------------------------------|
B|*play same riff from cln bridge*----------------------------------|
G|---------------------------------12-11-7--12-11-7-444444455555555-|
D|---------------------------------x--x--x--x--x--x-xxxxxxxxxxxxxxx-|
A|---------------------------------10-9--5--10-9--5-222222233333333-|
D|------------------------------------------------------------------|

End on:
e|-------------|
B|-------------|
G|-------------|
D|-------------|
A|-5-----------|
D|-4-----------|
Tap to rate this tab
# A B C D E F G H I J K L M N O P Q R S T U V W X Y Z