Song name
# A B C D E F G H I J K L M N O P Q R S T U V W X Y Z

Texas Is The Reason - Days Refrain tab

This TAB is more for one guitar; however, the second isn't hard to hear at all.

INTRO/VERSE(x7)
e-------------------------------------------------------------|
B-----9----9----10----9---9--------9----9----12----10-----9---|
G---9--9----9-----9----9---------9--9----9-----9-----9--------|
D--7----7----7-----7----7------11---11----11----11----11------|
A-------------------------------------------------------------|
D-------------------------------------------------------------|


CHORUS (Listen for the changes)
e-------------------------------------------------------|
B-------------------------------------------------------|
G-----------------------------2-------------------------|
D-----4-----2-----4-----2-----0-------------------------|
A-----4-----2-----4-----2-----0-------------------------|
D-----4-----2-----4-----2-----0-------------------------|

TRANSITION FROM THE CHORUS TO THE VERSE (~~~=bend)
e--------------------------|
B--------------------------|
G--------------------------|
D--------------------------|
A-----4-4-4-4-4-5~~~~~-----|
D---------------0----------|

INTRO/VERSE(x7)
e-------------------------------------------------------------|
B-----9----9----10----9---9--------9----9----12----10-----9---|
G---9--9----9-----9----9---------9--9----9-----9-----9--------|
D--7----7----7-----7----7------11---11----11----11----11------|
A-------------------------------------------------------------|
D-------------------------------------------------------------|


BRIDGE (x)
e----------------------------------------------------------------|
B----------------------------------------------------------------|
G----------------------------------------------------------------|
D-----0-----0-----0---0---0-----0-----0---0---0-----0-----0---0--|
A----5-----5-----5-------7-----7-----7-------9-----9-----9-------|
D-------0----0-----0-------0-----0-----0-------0-----0-----0-----|

e------------------------|
B------------------------|
G------------------------|
D-----0-----0-----0---0--|
A---10----10----10-------|
D------0-----0-----0-----|

                                           Or, for the D chord, play the
OUTRO (Again, listen for the changes).     D Power Chord with the low D open
e------------------------------------      e-------|
B------------------------------------      B-------|
G------------------------------------      G---7---|
D----7-------0-------7-------0-------      D---7---|
A----7-------0-------7-------0-------      A---5---|
D----7-------0-------7-------0-------      D---0---|
Tap to rate this tab
# A B C D E F G H I J K L M N O P Q R S T U V W X Y Z