Song name
# A B C D E F G H I J K L M N O P Q R S T U V W X Y Z

Texas - Telephone X tab

Pretty good riff:

e|------------------------------|--------------------------|
B|------------------------------|--------------------------|
G|------------------------------|-----5-5-------5-5-5------|
D|------10-10-------10-10-10-10-|--------------------------|
A|-12-12------12-12-------------|-8-8-----8-8-8------------|
E|------------------------------|--------------------------|


Play the riff all the way through the song.

repeat it - 

e|------------------------------|--------------------------|
B|------------------------------|--------------------------|
G|------------------------------|-----5-5-------5-5-5------|
D|------10-10-------10-10-10-10-|--------------------------|
A|-12-12------12-12-------------|-8-8-----8-8-8------------|
E|------------------------------|--------------------------|

vote well of course.
Tap to rate this tab
# A B C D E F G H I J K L M N O P Q R S T U V W X Y Z