Song name
# A B C D E F G H I J K L M N O P Q R S T U V W X Y Z

Textures - One Eye For A Thousand tab

Title: One Eye For A Thousand
Artist: Textures
Album: Silhouettes

originally played on a 7 string guitar

C#|---------------------------------|-------------------------------------|
G#|---------------------------------|-------------------------------------|
E |---------------------------------|-------------2---4---2-------5-------|
B |-0---0---0---0-------------------|-0---3---5---------------4-------3---|
F#|-5---5---5---0-------------------|-------------------------------------|
B |-7---7---7---0-------------------|-------------------------------------|

C#|---------------------------------|--------------------------------|
G#|---------------------------------|--------------------------------|
E |---------------------------------|-------------2---4---2----------|
B |-0---0---0---0-------------------|-0---3---5---------------4------|
F#|-5---5---5---0-------------------|--------------------------------|
B |-7---7---7---0-------------------|--------------------------------|


figure out the rhythm
C#|-------------------------------------------|
G#|-------------------------------------------|
E |-------------------------------------------|
B |0------------3------------5----------------|
F#|0--------.---3------------5----------------|
B |0------------3------------5----------------|

C#|---------------------------------------------|
G#|---------------------------------------------|
E |---------------------------------------------|
B |---------------------------------------------|
F#|-111--111--111--111--111--111--111--1slide up|
B |-111--111--111--111--111--111--111--1slide up|

C#|-------------------------------------------------|
G#|-------------------------------------------------|
E |-------------------------------------------------|
B |-------------------------------------------------|
F#|-444--444--444--444------------------------------|
B |-444--44---444--444------------------------------|

Tap to rate this tab
 
# A B C D E F G H I J K L M N O P Q R S T U V W X Y Z